Song name
# A B C D E F G H I J K L M N O P Q R S T U V W X Y Z

Adrien Le Roy - Sixiesme Branle tab

Sixiesme Branle - Adrien Le Roy (1520-1598)

TablEdited by Hamilcar

from http://membres.lycos.fr/classicalguitar/

Tuning: E A D F# B E - Time Signature: 3/4 

 |       |       |       |        |       |       |       |        
|------------------------0-------|------------------------2-------|
|--------------------------------|2-----------------------3-------|
|----------------3---------------|--------3---------------3-------|
|----------------2---------------|----------------0---------------|
|----------------0---------------|0-------------------------------|
|--------------------------------|--------------------------------|

 |       |       |       |        |       |       |       |        
|--------0-----------------------|----------------0-------0-------|
|--------0-------3-------2-------|0---------------0-------0-------|
|--------1-------0-------3-------|1-------3-------3-------2-------|
|--------------------------------|--------0-----------------------|
|----------------2-------0-------|--------------------------------|
|3-------------------------------|3-------2-------0---------------|

 |       |       |       |        |       |       |       |        
|------------------------0-------|--------------------------------|
|2-------------------------------|2-------0---2---3---0---2---3---|
|3---------------3---------------|3---------------0---------------|
|--------2-----------------------|----------------0---------------|
|0---------------0---------------|0-------------------------------|
|--------------------------------|--------------------------------|

 |       |       |       |        |       |       |       |        
|0-----------0-------0---2---0---|--------------------------------|
|----2---3-------3---------------|3---2---0-------0---------------|
|3---------------0---------------|------------3---2---0---3---2---|
|----------------0---------------|----------------2---------------|
|0-------------------------------|--------------------------------|
|--------------------------------|----------------0---------------|

 |       |       |       |        |       |       |       |        
|--------------------------------|--------------------------------|
|------------------------0-------|0-------1---------------0-------|
|3---------------3---------------|1-------3-------3---------------|
|--------2-----------------------|------------------------0-------|
|0---------------0---------------|--------0-------3---------------|
|--------------------------------|3-------------------------------|

 |       |       |       |        |       |       |       |        
|--------------------------------|--------------------------------|
|--------------------------------|0-----------------------0-------|
|1-------3-------1-------0-------|1---------------1---------------|
|2---------------2-------1-------|--------2-------2---------------|
|--------0---------------2-------|--------------------------------|
|0---------------0---------------|0---------------0---------------|

 |       |       |       |        |       |       |       |        
|--------------------------------|----------------0---------------|
|0-----------0---2-------0---2---|3---2---0-------0---------------|
|1-------3-----------3-----------|0-----------3---2---------------|
|----------------2---------------|0-----------------------2-------|
|----------------0---------------|--------------------------------|
|3-------------------------------|----------------0---------------|

 |       |       |       |        |       |       |       |        
|--------------------------------|--------------------------------|
|2-------------------------------|0---3---1---0-------1---0-------|
|3---------------3---0---1---3---|1---------------3-----------3---|
|--------2-----------------------|--------------------------------|
|0---------------0---------------|----------------0---------------|
|--------------------------------|3-------------------------------|

 |       |       |       |        |       |       |       |        
|--------------------------------|--------------------------------|
|----0---------------------------|--------------------------------|
|1-------3---1---0---3---1---0---|------------0---1---0---1---3---|
|2-------------------------------|2---1---2-----------------------|
|----------------0---------------|3-------------------------------|
|0-------------------------------|--------------------------------|

 |       |       |       |        |       |       |       |        
|--------------------------------|--------------------------------|
|0-----------0---2-------0---2---|3---2---0-------0---------------|
|----1---3-----------3-----------|3-----------3---2---0---3---2---|
|0---------------2---------------|0---------------2---------------|
|----------------0---------------|--------------------------------|
|3-------------------------------|----------------0---------------|

 |       |       |       |        
|-------------------------------||
|2------------------------------||
|3------------------------------||
|-------------------------------||
|0------------------------------||
|-------------------------------||

Tap to rate this tab
 
# A B C D E F G H I J K L M N O P Q R S T U V W X Y Z