Song name
# A B C D E F G H I J K L M N O P Q R S T U V W X Y Z

Advent - Revival tab

-------------------------------------------------------------------------------
                             Revival - Advent
-------------------------------------------------------------------------------
Tabbed by: jbolfPROVIDER
E-mail: motocrosser248@yahoo.com

This is my first tab, so its not great, but this is how I play it for the most
part, just figure out the strumming patterns

Tuning: Drop B


C|--------------------------------------------------------------------------------|
 G#|---------3--x--3--x--3----------3---------------------------------------------|
 E|----------2--x--2--x--2----------2---------------------------------------------|
B|--0-0-0-------------------0-0-0------0-0-0------------x16-----------------------|
F#|-0-0-0-------------------0-0-0------0-0-0--------------------------------------|
B|--0-0-0-------------------0-0-0------0-0-0--------------------------------------|



C|-----------------------------------------------------------------------------|
G#|----------------------------------------------------------------------------|
 E|----------------------------------------------------------------------------|
-B|--10-----14------13------18------10-----14---15----21-----------------------|
F#|---x------x-------x-------x-------x------x----x-----x--------x2-------------|
B|----8-----12------11------16-------8-----12---13----19-----------------------|


C|-----------------------------------------------------------------------------|
E|-----------------------------------------------------------------------------|
G#|----------------------------------------------------------------------------|
 B|-1-0-0-0---1-1-0-0-00000----------------------------------------------------|
F#| 1-0-0-0---1-1-0-0-00000------------------------x7--------------------------|
B|--1-0-0-0---1-1-0-0-00000----------------------------------------------------|

C|----------------------------------------------------------------------------|
G#|---------------------------------------------------------------------------|
E|----------------------------------------------------------------------------|
B|---1-0-4-0-0-3-4-0-7-0-1-1--------------------------------------------------|
F#|--1-0-4-0-0-3-4-0-7-0-1-1-----Back to intro--------------------------------|
B|---1-0-4-0-0-3-4-0-7-0-1-1--------------------------------------------------|


************************************

| /   slide up
| \   slide down
| h   hammer-on
| p   pull-off
| ~   vibrato
| +   harmonic
| x   Mute note
| b   Bend
| pb  Pre-bend
| br  Bend release
| pbr Pre-bend release
| brb Bend release bend

************************************
Tap to rate this tab
# A B C D E F G H I J K L M N O P Q R S T U V W X Y Z