Song name
# A B C D E F G H I J K L M N O P Q R S T U V W X Y Z

Aegis - Sinta tab

Not really sure about the intro, just done it by ear.

Aegis
Sinta

Intro
e|-------------------------------------------------------------------|
b|----10----10/12--12/14--14--14/15\12---14-12-14-14/15--------------|
g|--9----9----------------------------------------------11-11-9-11---|
d|-------------------------------------------------------------------|
a|-------------------------------------------------------------------|
E|-------------------------------------------------------------------|

e|---------------------------------------5h7p7-4---------------------|
b|---10-10------12-12----10-9-10/12-10------------5------------------|
g|---------11-9------------------------------------------------------|
d|-------------------------------------------------------------------|
a|-------------------------------------------------------------------|
E|-------------------------------------------------------------------|


Verse
Bb
Pag-ibig ko sa yo
Eb
Tunay at totoo
F
Sing tamis ng wine
Bb
Sing tatag ng sunshine

Tunghayan mo sana
    Eb
Ang aking pagsinta
F
Langit ng puso ko
   Bb               F
O, ang pag-ibig mo, sinta...

Chorus
Bb
Nananaginip ng gising
Eb
Nakatulala sa hangin
C
Nagsusumidhing damdamin
F
Kahit halik lang ang akin

Bb
Nababaliw ako sa 'yo
Eb
Bawat silakbo ng puso ko
F
Sa isang sulok na lang
            Bb    F
Umiibig sa 'yo, sinta...


So there yah go. Enjoy!
-Kel
Tap to rate this tab
 
# A B C D E F G H I J K L M N O P Q R S T U V W X Y Z