Song name
# A B C D E F G H I J K L M N O P Q R S T U V W X Y Z

Aer - So Far Down tab

-------------------------------------------------------------------------------
			     So Far Down - Aer
-------------------------------------------------------------------------------
Great Song by an up-and-coming band, Check em' out at http://www.facebook.com/theaermusic
Send me a message if you have any questions.

Tuning: Standard
Key: A flat

Intro
e|--------------------------------------|
B|--------------------------------------|
G|--------------------------------------|
D|----------------------11---11-13-10---| X2
A|---8---8-8-11---11-11-----------------|
E|--------------------------------------|

Chorus

      Fm      Ab      Db      Cm
e|----8---8---8---8---9---9---8---8---|
B|----9---9---9---9---9---9---8---8---|
G|----10--10--8---8---10--10--8---8---|
D|------------------------------------| X2
A|------------------------------------|
E|------------------------------------|

Break/Verse
e|-------------------------------------------------------------------------|
B|-------------------------------------------------------------------------|
G|-----------------------------------------------10-------10-------10------|
D|----6-----6-----6-8/10------10-------10-----------11-11----11-11----11---| 
A|------8-8---8-8--------11-11----11-11----11------------------------------|
E|-------------------------------------------------------------------------|

e|----------------------------|
B|----------------------------|
G|-----8-------8-------8------|
D|-------10-10---10-10---10---| X3
A|----------------------------|
E|----------------------------|
Tap to rate this tab
 
# A B C D E F G H I J K L M N O P Q R S T U V W X Y Z