Song name
# A B C D E F G H I J K L M N O P Q R S T U V W X Y Z

Aer - Feel I Bring tab

-------------------------------------------------------------------------------
			     Feel I Bring - Aer
-------------------------------------------------------------------------------
Email: Guitarguy127@gmail.com

Tuning: Standard

intro/chorus guitar 1
	F		  Gm			 Bb	  Bb add2		
e|------------------------------------8--8----|
B|-----1-1---1------3-3---3-----6--6--6--6----|
G|-----2-2---2------3-3---3-----7--7--7--7----|
D|-----3-3---3------5-5---5-----8--8--8--8----|
A|--------------------------------------------|
E|---1-----1-----3-3-----3-----6--------------|

chorus guitar 2 		reggae upstrokes and such
	F		Gm		Bb add2
e|---1---------3----------8----|
B|---1---------3----------6----|
G|---2---------3----------7----|
D|-----------------------------|
A|-----------------------------|
E|-----------------------------|

verse is just improvised over Fmaj7

interlude

e|----6-6-5-5---------6-6-5-5--------------------------------------------|
B|------------6-6-3-3---------6-6-3-3------------------------------------|
G|------------------------------------2-2-----2-2-----5-5-2-2------------|
D|----------------------------------------5-5-----5-5---------5-5-3-3----| X2
A|-----------------------------------------------------------------------|
E|-----------------------------------------------------------------------|

That's Pretty Much It
Tap to rate this tab
# A B C D E F G H I J K L M N O P Q R S T U V W X Y Z