Song name
# A B C D E F G H I J K L M N O P Q R S T U V W X Y Z

Aer - Songbird tab

E--------------5--6-------------------1--1-------------|
A-5--5------------x----------------------x-------------|
D----7------------8----------------------3-------------|
G----5------------8----------------------2-------------|
B----6------------7----------------------1-------------|
E----5------------8--8-6-6---------------1-------------|

E--1--0--1--1--3--3------------------------------------|
A-----------------5------------------------------------|
D-----------------3------------------------------------|
G-----------------3------------------------------------|
B-----------------3------------------------------------|
E-----------------3------------------------------------|

Chords: Dm, A#, F, Gm

Listen to the song to find the groove


(Aer posted this on their site, it's as accurate as it gets)
Tap to rate this tab
# A B C D E F G H I J K L M N O P Q R S T U V W X Y Z