Song name
# A B C D E F G H I J K L M N O P Q R S T U V W X Y Z

Aer - Feel I Bring tab

Feel I Bring
Aer
What You Need - EP

Tuning: Standard


Intro
|---------------------------------------8-8-8-8-8-8--|
|-----1-1-1-1------3-3-3-3--------6-6-6-6-6-6-6-6-6--|
|-----2-2-2-2------3-3-3-3--------7-7-7-7-7-7-7-7-7--|
|-----3-3-3-3------5-5-5-5--------8-8-8-8-8-8-8-8-8--|
|----------------------------------------------------|
|---1----------3---------------6---------------------|

Throughout most of the song
|---1---1---3---3---8---8---8---8--|
|---1---1---3---3---6---6---6---6--|
|---2---2---3---3---7---7---7---7--|
|---3---3---5---5---8---8---8---8--|
|----------------------------------|
|----------------------------------|


Verse
                             1st ending             2nd ending
|---5---5---8--5--3---3--3--5--3--1---1-|-----8-|-------------|
|-----------------------------------3---|-------|-3--1h3p1----|
|---------------------------------------|-2-----|-----------2-|
|---------------------------------------|-------|-------------| 
|---------------------------------------|-------|-------------|X2
|---------------------------------------|-------|-------------|


|------------------------------------------------------------|
|------------------------------------------------------------|
|------------------------------------------------------------|
|---3-5-3--5/7/5-5/7/5-5/7/5-5/7/5---3--3------3--3----------|
|---------------------------------------5-3-5-----5-3-5------|
|------------------------------------------------------------|




Solo
|----6-6-5-5---------6-6-5-5--------------------------------------------|
|------------6-6-3-3---------6-6-3-3------------------------------------|
|------------------------------------2-2-----2-2-----5-5-2-2------------|
|----------------------------------------5-5-----5-5---------5-5-3-3----| X2
|-----------------------------------------------------------------------|
|-----------------------------------------------------------------------|

|------------------------|-----------------|-------|
|------------------------|-----------------|-------|
|------------------------|-----------------|-------|
|--3---5/7/5-----3----3--|---5b--5b--3-----|-------| X2
|-----------------5-3----|-------------5---|-------|
|------------------------|-----------------|-------|

Outro
|------1-----1-----1--3-3-3-3-1-1-1---|
|----1-----1-----1--------------------|
|--2-----2-----2----------------------|
|-------------------------------------|repeat a lot
|-------------------------------------|
|-------------------------------------|

Fresh Aer Movement!
Tap to rate this tab
# A B C D E F G H I J K L M N O P Q R S T U V W X Y Z