Song name
# A B C D E F G H I J K L M N O P Q R S T U V W X Y Z

Aer - Take It Wrong tab

Take It Wrong
Aer
Strangers - EP
2013

Tuning: Standard


Throughout the entire song
|--6---6---8---8----8---8----6---6---|
|--6---6---8---8----9---9----8---8---|
|--6---6---8---8----10--10---8---8---|
|--8---8---10--10---10--10---8---8---|
|--8---8---10--10---8---8----6---6---|
|--6---6---8---8---------------------|


Chorus
|-------------------------------8-6------|
|----------4-6-4------8----6h8--------6--|
|--3----5----------5---------------------|
|----------------------------------------|
|----------------------------------------|
|----------------------------------------|

Great song. Very simple.
Tap to rate this tab
# A B C D E F G H I J K L M N O P Q R S T U V W X Y Z