Song name
# A B C D E F G H I J K L M N O P Q R S T U V W X Y Z

Aer - Medina chords

Highlighted       Show chord diagrams
-------------------------------------------------------------------------------
                             Medina - Aer
-------------------------------------------------------------------------------

Tabbed by: Eric

Tuning: Standard
     Dm    A#   C    G   Dm    F    C    G
e|----5----6----8----3----5----8----8----3------------------------------------------|
B|----6----6----8----3----6----10---8----3------------------------------------------|
G|----7----7----9----4----7----10---9----4------------------------------------------|
D|----7----8----10---5----7----10---10---5------------------------------------------|
A|----5----8----10---5----5----8----10---5------------------------------------------|
E|----x----6----8----3----x----x----8----3------------------------------------------|
Tap to rate this tab
 
# A B C D E F G H I J K L M N O P Q R S T U V W X Y Z