Song name
# A B C D E F G H I J K L M N O P Q R S T U V W X Y Z

Aer - Floats My Boat tab

doing this because its a fantastic song and the other versions arent all that accurate

im not really focusing on the beat, its somewhat tricky because its so specific. 
pick that up from listening to the song

basically the song repeats the 8 measure riff the entire time except for the intro 
which differs very slightly.
its essentially all on the bottom for strings. 

the chords i put on top the riffs are not accurate but i tried



Intro:
    Bb              Cm              Gm                   F
e|--10--10---10------11--11---11------6--6---6-----------8---8---|
B|--11--11---11------13--13---13------8--8---8-----------10--10--|
G|--10--10---10------12--12---12------7--7---7-----------10--10--|
D|--12--12---12------10--10---10------8--8---8-----------10--10--|
A|---------------------------------------------------------------|
E|---------------------------------------------------------------|

    Bb              Cm              Gm                   Bb
e|--10--10---10------11--11---11------6--6---6-----------10--10--|
B|--11--11---11------13--13---13------8--8---8-----------11--11--|
G|--10--10---10------12--12---12------7--7---7-----------10--10--|
D|--12--12---12------10--10---10------8--8---8-----------12--12--|
A|---------------------------------------------------------------|
E|---------------------------------------------------------------|





Everything Else:
    Bb              Cm              Gm                   F
e|--10--10---10------11--11---11------6--6---6-----------8---8---|
B|--11--11---11------13--13---13------8--8---8-----------10--10--|
G|--10--10---10------12--12---12------7--7---7-----------10--10--|
D|--12--12---12------10--10---10------8--8---8-----------10--10--|
A|---------------------------------------------------------------|
E|---------------------------------------------------------------|

    Bb              Cm              Gm                       F
e|--10--10---10------11--11---11------6--6---6---------------6-6-|
B|--11--11---11------13--13---13------8--8---8---------------6-6-|
G|--10--10---10------12--12---12------7--7---7---------------7-7-|
D|--12--12---12------10--10---10------8--8---8---------------8-8-|
A|---------------------------------------------------------------|
E|---------------------------------------------------------------|





Little riff idk what to call:
e|---------------------------------------------------------------|
B|---------------------------------------------------------------|
G|--10-10-------------10-10--------------------------------------|
D|--------12-12-12-12-------12-12-10-10-10-10-8-8----------------|
A|---------------------------------------------------------------|
E|---------------------------------------------------------------|
Tap to rate this tab
 
# A B C D E F G H I J K L M N O P Q R S T U V W X Y Z