Song name
# A B C D E F G H I J K L M N O P Q R S T U V W X Y Z

Aer - Says She Loves Me tab

(/) Slide Up  (\) Slide Down  (h) Hammer On  (p) Pull Off  (b) Bend (r) Release (v) Vibrato
Chorus:
E|------------------------------------------|
B|------------------------------------------|
G|-5-7-7-7-5-------------5-7-7-7-5----------|
D|-----------7-4-7-4\0-------------7-4-7\0--|
A|------------------------------------------|
E|------------------------------------------|

Verse:
E|-------------------------------|
B|-------------------------------|
G|-------------------------------|
D|-------------------------------|
A|-7-9-9-9--9-9-9-7-9-9-9--9-9-9-|
E|-------------------------------|

Bridge:
E|----
B|-12b
G|----
D|----
A|----
E|----

Solo:
E|-----------------------------------------|
B|-7p5-----------------7p5-----------------|
G|-----7-4\0------7--------7-4\0-----7-----|
D|------------7h9---7------------7-9---9-7-|
A|-----------------------------------------|
E|-----------------------------------------|
Tap to rate this tab
# A B C D E F G H I J K L M N O P Q R S T U V W X Y Z