Song name
# A B C D E F G H I J K L M N O P Q R S T U V W X Y Z

Aerosmith - Taste Of India tab

Cancion:Taste Of India
Interprete:Aerosmith
Album:I Don't Want To Miss A Thing (Armaggedom)
Tab Por:Gabriel Gonzalez Chile - SkidRowForever

Verso 1  (2x)
|-------------------------------|-------------------------9/12--|
|-----------------9-10-12-10-9--|------------------9-10-12------|
|--9b10v-9-9b10v-9-------------9|--9b10v-9-9b10v-9--------------|
|-------------------------------|-------------------------------|
|-------------------------------|-------------------------------|
|0------------------------------|-------------------------------|

Verso 2 (2x)
|----------------------|--------------------4----|
|----------------------|----------------3/5--(5)-|
|----------1-2-4-2-1---|----------1-2-4----------|
|--3-2-3-2-----------2-|--3-2-3-2----------------|
|----------------------|-------------------------|
|----------------------|-------------------------|

Riff 1
|-----------------------------------|
|-----------------------------------|
|-------------------------------10--|
|-------------------------------10--|
|-------------------------------8---|
|--0-000-000-00--000-000-000-00-----|
   . ... ... ..  ... ... ... ..
Corte 1
|------------------|
|------------------|
|----2---2---2---2-|
|---2---2---2---2--|
|--0---------------|
|------3---1---3---|

Riff 2
|--------------------|
|--------------------|
|--7/99999-7---------|
|--7/99999-7-7----5--|
|--5/77777-5-7----5--|
|------------5----3--|

Corte 2
|-----------------------------------------------------------|
|-----------------------------------------------------------|
|-----------3------------------3-----------------2----------|
|------4------4---4-------4------4---4------3------3---3----|
|----4---4------4-------4---4------4------3---3------3------|
|-2------------------2------------------1-------------------|

|-----------------------------|
|-----------------------------|
|------9-9b-7/9\5-5b-4\5/-2\4-|
|-----------------------------|
|-----------------------------|
|-----------------------------|

|--0---------------|
|----0-------------|
|------0-----------|
|--------2---------|
|----------2-------|
|------------0-----|

Verso 2 durante el solo
Tap to rate this tab
# A B C D E F G H I J K L M N O P Q R S T U V W X Y Z