Song name
# A B C D E F G H I J K L M N O P Q R S T U V W X Y Z

Aerosmith - Remember tab

Band : Aerosmith
Song : Remember (Walking in the Sand) (Song)

Standard Tuning
(E A D G B E)

The solo starts 1:47 on the Greatest Hits Album, its pretty easy so enjoy!

|------------------------------------------------------------------|
|------------------------------------------------------11----------|
|------------8-10~-----------8-10~-----------8-10~-10b----10r-8----|
|-----/10-10----------/10-10----------/10-10--------------------10-|
|--3---------------------------------------------------------------|
|-------------------4---------------1------------------------------|

|--8-8~--11-13-----------------------------------------------------|
|------------------------------------------------------------------|
|---------------------------------------------8-----------10-8-----|
|----------------------------------------8-10---10---8h10----------|
|---------------11-10-8-6h8p6-------8-10---------------------------|
|-----------------------------8--11--------------------------------|

|--------------8----------10-----------15-----8--------------------|
|------11--------11----------(11)--8---18b----11b------------------|
|--10b----10r-------10br-------------------------------------------|
|------------------------------------------------------------------|
|------------------------------------------------------------------|
|------------------------------------------------------------------|

If you have any questions, please email me at Marshall_5150@hotmail.com
Tap to rate this tab
# A B C D E F G H I J K L M N O P Q R S T U V W X Y Z