Song name
# A B C D E F G H I J K L M N O P Q R S T U V W X Y Z

Aerosmith - S O S tab

(Intro)

e ---------------------------------------------I
B ---------------------------------------------I
G ---------------------------------------------I
D --6--4------------------6--4-----------------I
A --------6-----2--3--4---------6-----4--2-----I
E -----------4---------------------4--------4--I

e ---------------------------------------------------I
B ---------------------------------------------------I
G ---------------------------------------------------I
D --6--4------------------6--4-----------------------I
A --------6-----2--3--4---------6-----4--2-----------I
E -----------4---------------------4--------4--s2--s3I

e ---------------------------------------------I
B ---------------------------------------------I
G ---------------------------------------------I
D ---------------------------------------------I
A ---------------------------------------------I
E 4x-4x-4x-4x-4x-4x-4x-4x-4x-4x-4x-4x-4x-4x-4x-I

e ------------------------------I
B ------------------------------I
G ------------------------------I
D ------------------------------I
A ------------------------------I
E 4-4-4-4-4-4-4-4-4-4-4-4-4-4-4-I
Tap to rate this tab
# A B C D E F G H I J K L M N O P Q R S T U V W X Y Z