Guitaretab - guitar tabs
Song name
# A B C D E F G H I J K L M N O P Q R S T U V W X Y Z

Aerosmith - Hand That Feeds tab

The Hand That Feeds
Aerosmith
1977 Draw The Line

Intro:
E||--------------------------------------------|
B||-------------------------------------14/-12-|
G||--\11--------11/9---------\11--------14/-12-|
D||--------------------------------------------|
A||--------------------------------------------|
E||--------------------------------------------|

Main Riff
E||--------------------------------------------|
B||--------------------------------------------|
G||--------------------------------------------|
D||------------------7/------------------------|
A||------------------7/------------------------|
E||-0-1-2-3-4\5--------------------------------|

--------------------------------------------------------------------
[ Tab from: http://www.guitaretab.com/a/aerosmith/158448.html ]
E||--------------------------------------------|
B||--------------------------------------------|
G||--------------------------------------------|
D||--------------------------------------------|
A||--------------------------------------------|
E||-0-1-2-3-4\5----5-4-3-2-1~~~----------------|

--------------------------------------------------------------------

play the solo, them:
E||--------------------------------------------|
B||--------------------------------------------|
G||-----------------5--------------------------|
D||-------0-2-3-4-5----------------------------|
A||-0-2-3--------------------------------------|
E||--------------------------------------------|

E||--------------------------------------------|
B||--------------------------------------------|
G||--------------------------------------------|
D||--------------------------------------------|
A||--------------------7-----------------------|
E||-1-----3-3-4-5--6-7-------------------------|

Related for Hand That Feeds tab
×
Hand That Feeds