Guitaretab - guitar tabs
Song name
# A B C D E F G H I J K L M N O P Q R S T U V W X Y Z

Aerosmith - Crash tab

Cancion:Crash 
Interprete:Aerosmith
Album:I Don't Want To Miss A Thing (Armaggedom)
Tab Por:Gabriel Gonzalez Chile - SkidRowForever
[ Tab from: http://www.guitaretab.com/a/aerosmith/167265.html ]
Introduccion
|--------------|
|--------------|
|-5---5-8-2-10-|
|-5-5-5-8-2-10-|
|-3-5-3-6-0-8--|
|---3----------|
Verso (4x)
|----------|
|----------|
|-5/8-2-10-|
|-5/8-2-10-|
|-3/6-0-8--|
|----------|
Coro (2x)
|----------------------------------------------|
|----------------------------------------------|
|---------------3-----5-----3------------3-----|
|--55555555-555-3-555-5-555-3-55555555---3--3--|
|--55555555-555-1-555-3-555-1-55555555---1--3--|
|--33333333-333---333---333---33333333------1--|
Verso
Coro

Coro 2          
              (no estoy seguro de esta parte)
                           3
|---------------|------------------|
|---------------|------------------|
|-77777777-3----|-7777777-3-7/88-7-|
|-77777777-3-3--|-7777777-3-7/88-7-|
|-55555555-1-3--|-5555555-1-5/66-5-|
|------------1--|------------------|
Related for Crash tab
×
Crash