Song name
# A B C D E F G H I J K L M N O P Q R S T U V W X Y Z

Aerosmith - Spiderman tab

Spiderman by Aerosmith
                               x6
e-------------------------------|
B-------------------------------|
G-------------------------------|
D-0-222-0-2-0-2b--0-2-0-2-0-2b--|
A-0-222-0-2-0-2b--0-2-0-2-0-2b--|
D-0-222-0-2-0-2b--0-2-0-2-0-2b--|

e-------------------------------|
B-------------------------------|
G-------------------------------|
D-5-777-5-7-5-7b--5-7-5-7-5-7b--|
A-5-777-5-7-5-7b--5-7-5-7-5-7b--|
D-5-777-5-7-5-7b--5-7-5-7-5-7b--|

 Look Out There Goes The Spiderman
e---------------------------|
B---------------------------|
G---------------------------|
D---------------------------|
A-9-let ring----------------|
D-9----------9-7-5-7-5-2----|

Any Corrections Please Comment
Thanks
Tap to rate this tab
# A B C D E F G H I J K L M N O P Q R S T U V W X Y Z