Guitaretab - guitar tabs
Song name
# A B C D E F G H I J K L M N O P Q R S T U V W X Y Z

Aerosmith - Last Child tab

Song: Last Child (solo)
Artist: AEROSMITH

Tabbed by: Matthew LaPierre (matthew2010)
Email: matthewnq2010@gmail.com

Tuning: Down 1/2 step
    pm................................. Full
e|---------------------------------------------------------------------------|
B|--------------------------------------15b~~~-------------------------------|
G|--13-14-13-14-13-14-13-14-13-14-13-13--------------------------------------|
D|---------------------------------------------------------------------------|
A|---------------------------------------------------------------------------|
E|---------------------------------------------------------------------------|
   pm................................... Full       Full      Full
e|------------------------------------------------12------12-12---12---------|
B|-12-------------------------------------15b~~~----15b----- 15b-----15p12---|
G|-13-14-13-14-13-14-13-14-13-14-13-14-13---------------------------------15-|
D|---------------------------------------------------------------------------|
A|---------------------------------------------------------------------------|
E|---------------------------------------------------------------------------|
[ Tab from: http://www.guitaretab.com/a/aerosmith/191565.html ]
e|--12-----------------------------------------------------------------------|
B|-----12--------------------------------------------------------------------|
G|--------14--12--------------------9--9--9~~~-----9--12p9-----99~~---------|
D|--------14--12--14-14~~-(14)\/11-------------11\---------11---------11-----|
A|---------------------------------------------------------------------------|
E|---------------------------------------------------------------------------|
              Full                    1/2
e|------15----17b---r(17)--15--------17b---17b--17----15---------------------|
B|---------15------------------15------------------15----17~~17-15h17--15-15-|
G|-16------------------------------------------------------------------------|
D|---------------------------------------------------------------------------|
A|---------------------------------------------------------------------------|
E|---------------------------------------------------------------------------|
                                                                Full
e|--------------14-12----14-12----14-12-----14-12----14-12------14b(14)-----|
B|--------------------14-------14-------14--------14-------14--------------- |
G|-16-14\12------------------------------------------------------------------|
D|----------14---------------------------------------------------------------|
A|---------------------------------------------------------------------------|
E|---------------------------------------------------------------------------|
               Full                                                   1/4
e|---------------------------------------------------------------------------|
B|-x-15p14--12---------------------12-14-15---12-14-15--x-14p12----12--------|
G|-------------12b-----------12h14------------------------------12----12b----|
D|------------------14-14~~~~------------------------------------------------|
A|---------------------------------------------------------------------------|
E|---------------------------------------------------------------------------|
                  Full    Full
e|-------------------------------------12-(12)\------------------------------|
B|---------------15b---(15)b~~~~~~~~~~---------------------------------------|
G|--------14p12--------------------------------------------------------------|
D|--14p12--------------------------------------------------------------------|
A|---------------------------------------------------------------------------|
E|---------------------------------------------------------------------------|

|  pm   palm mute	
| 1/4  slight bend 
| 1/2  half-step bend 
| Full whole-step bend
| r  release bend
| /  slide up
| \  slide down
| h  hammer-on
| p  pull-off
| ~  vibrato
| +  harmonic
| x  Mute note
===============================================================================
Related for Last Child tab