Guitaretab - guitar tabs
Song name
# A B C D E F G H I J K L M N O P Q R S T U V W X Y Z

Aerosmith - Come Together tab

Song: Come Together (solo)
Artist: AEROSMITH

Tabbed by: Matthew LaPierre (matthew2010)
Email:Matthewnq2010@gmail.com
[ Tab from: http://www.guitaretab.com/a/aerosmith/191566.html ]
Tuning: Drop D
                     1/4                                       1/2
e|-----------------------------|----------------------------------------------|
B|-----------------------------|----------10--10-------10--12--12b------------|
G|-------------------5b--------|-------10-10--10-------10--12--12b------------|
D|--3---3-4-5-6-7-7------------|------------------12--------------------------|
A|----5------------------------|----------------------------------------------|
E|-----------------------------|----------------------------------------------|
               1/2                     Full
e|-----------------------------------|----------------------------------------|
B|------10--12-12b-r12p-10-----10\---|----------------------------------------|
G|------10--12-12b r12p-10-----10\---|----------------------------5----5----5-|
D|--12---------------------12--------|-5b--3-------------------/7---/7---/7---|
A|-----------------------------------|---------5-3-0-------5------------------|
E|-----------------------------------|---------------6-5-3---0----------------|
                                                                     1/4
e|-5--5---------5--5--------5--5-----------5--5-----------5--5---5----5b------|
B|-5--5-7--5----5--5-7--5----5--5-7--5-----5--5-7--5------5--5---5----5b------|
G|------7--5---------7--5---------7--5----------7--5--------------------------|
D|-----------7-----------7-------------7--------------7-----------------------|
A|----------------------------------------------------------------------------|
E|----------------------------------------------------------------------------|
                                             1/2      1/4    Full
e|-----------5--5---------5--5----------|------------------5-7b--(7)-5--------|
B|--7--5-----5--5-7--5----5--5-7--5-----|-5--7b-(7)-5-7b---5-7b--(7)-5--7/----|
G|--7--5----------7--5---------7--5-----|-5--7b-(7)-5-7b----------------7/----|
D|-------7-------------7------------7---|-------------------------------------|
A|--------------------------------------|-------------------------------------|
E|--------------------------------------|-------------------------------------|
       1/2              1/2                                1/4 
e|--1012b--------------------------------------------------------------------|
B|--1012b-------------------------------------------------------10b----------|
G|--------------7--7------------7(7)\-------5---------4---4b-----------------|
D|----------7--10--9--(9)b--(9)-7-(7)\-------0---------0---0------------------|
A|----------5----------------------------/5--5----5h7--5---5------------------|
E|----------------------------------------------------------------------------|

| 1/4  slight bend 
| 1/2  half-step bend 
| Full whole-step bend
| r  release bend
| /  slide up
| \  slide down
| h  hammer-on
| p  pull-off
| ~  vibrato
| +  harmonic
| x  Mute note
===============================================================================

Related for Come Together tab