Song name
# A B C D E F G H I J K L M N O P Q R S T U V W X Y Z

Aerosmith - Lightning Strikes tab

                        Lightning Strikes
                            Aerosmith
                 Words and Music by Richard Supa



     Intro
-------------------9-------------------------------|
----------------------12------------12-------------|
---------------------------11b---9-----------------|
--------------------------------------------7------|
-------2---0--------------------------------7------|
--0-----------------------------------------5------|

Slow Fade In
---------------------------------|---------------------------------|
---------------------------------|---------------------------------|
---------------------------------|---------------------------------|
---2-2-2-2-2-2-2-2-2-1-2-2-2-2-2-|-7-7-7-7-7-7-7-7-7-7-7-7-7-7-7-7-|
---2-2-2-2-2-2-2-2-2-2-2-2-2-2-2-|-7-7-7-7-7-7-7-7-7-7-7-7-7-7-7-7-|
---0-0-0-0-0-0-0-0-0-0-0-0-0-0-0-|-5-5-5-5-5-5-5-5-5-5-5-5-5-5-5-5-|

Verse
-----------------------------------------------------|
-----------------------------------------------------|
-----------------------------------------------------|
-----------------------------------------------------|
---2-----------------------------------2-4-4-5-4-2---|
---0---------------------------------0-0-2-2-3-2-0---|
   boys and dukes get ready to rumble
   word on the street some heads are gonna tumble
   lids gonna blow up in hells kitchen
   combat zones its your means of survival
Pre-Chorus
-----------------------------------------------|
-----------------------------------------------|
-----------------------------------------------|
-----------------------------------------------|
--7--7----7--7--7--7--7--5--5-5----5-7-7-7-7-7-|
--5--5----5--5--5--5--5--3--3-3----3-5-5-5-5-5-|
gonna flash when the street gang clash in the cloak and dagger night
eye for an ee and a tooth for a tooth their so ruthless when they fight
gonna flash when the street gang clash in the cloak and dagger night

Chorus
------------------------------------------|
------------------------------------------|
-------5----------------------------------|
--2-4--5--4--2----2---5-6-7-5-7-5-7-7-7-7-|
--2-4-----4--2-5--2---5-6-7-5-7-5-7-7-7-7-|
----------------0-------------------------|
When the lightning strikes

Bridge
---------------------------------|
---------------------------------|
---------------------------------|
---------------------------------|
-7--9---10-7-9----7---9---10-7-9-|
-5--5---5--5-5----5---5---5--5-5-|
tharals free for all in the parking lot over
who will rule the streets and the night expleodes
cops bring the heat
chains they crashed like thunder while
weak ones all retreat  
gotta get last likes or they'll read yo fun  ral rights

-Chorus Repeat

Tap to rate this tab
 
# A B C D E F G H I J K L M N O P Q R S T U V W X Y Z