Song name
# A B C D E F G H I J K L M N O P Q R S T U V W X Y Z

Aerosmith - Let The Music Do The Talking tab

Hi guy's. At least i measured to figure out a small part of the solo

(Play with slide. But bending will be fine also)
E:---------------------------------------------------------|
B:---------------------------------------------------------|
G:--3-0-3\-0-3\-3\5-3-0------------------------------------|
D:--3-0-3\-0-3\-3\5-3-0----(4x)----------------------------|
A:---------------------------------------------------------|
E:---------------------------------------------------------|


E:------------------------------------------------------------------------|
B:------------------------------------------------------------------------|
G:--3/12~-12~-12/10~-10~-10\12~-12~-12/10~-10~-10/17~-17~-17\15~-15~------|
D:--3/12~-12~-12/10~-10~-10\12~-12~-12/10~-10~-10/17~-17~-17\15~-15~------|
A:------------------------------------------------------------------------|
E:------------------------------------------------------------------------|

E:------------------------------------------------------------------------|
B:------------------------------------------------------------------------|
G:-15/17~-17~-17\15~-15~-15\12-12-12-10-10-10-5-5-5-7-7-7-7---------------|
D:-15/17~-17~-17\15~-15~-15\12-12-12-10-10-10-5-5-5-7-7-7-7---------------|
A:------------------------------------------------------------------------|
E:------------------------------------------------------------------------|

That's about all i can get out of my head. The rest of the song is found on the original 
This is just a solo add-on
Tap to rate this tab
 
# A B C D E F G H I J K L M N O P Q R S T U V W X Y Z