Song name
# A B C D E F G H I J K L M N O P Q R S T U V W X Y Z

Aerosmith - Let The Music Do The Talking tab

Guitar I
   E E E E E E E E E E E E E E E E Wx2
e|------------------------------------|
B|------------------------------------|
G|---------------------------------H--|
D|-------------------------------6-8--|
A|-------------------------------6-8--|
E|-3-3-3-3-3-3-3-3-3-3-3-3-3-3-3-4-6--|

Guitar II
   E E E E E E E E E E E E E E E E Wx2 <-- Don't hold the note for 2
e|------------------------------------|    measures, just continue the 
B|------------------------------------|    eighth note pattern for the 2
G|------------------------------------|    measures.
D|------------------------------------|
A|------------------------------------|
E|-3-3-3-3-3-3-3-3-3-3-3-3-3-3-3-3-3--|



Guitar I
   E E E E E E E E E E E E E E E E Wx2
e|------------------------------------|
B|------------------------------------|
G|---------------------------------H--|
D|-------------------------------6-8--|
A|-5-5---------------------------6-8--|
E|-3-3-3-3-3-3-3-3-3-3-3-3-3-3-3-4-6--|

Guitar II
   E E E E E E E E E E E E E E E E Wx2  <-- Same here as above.
e|------------------------------------|
B|------------------------------------|
G|------------------------------------|
D|------------------------------------|
A|------------------------------------|
E|-3-3-3-3-3-3-3-3-3-3-3-3-3-3-3-3-3--|



Guitar I
   E E E E E E E E E E E E E E E E
e|------------------------------------|
B|------------------------------------|
G|------------------------------------|
D|------------------------------------|
A|-5-5--------------------------------|
E|-3-3-3-3-3-3-3-3-3-3-3-3-3-3-3-3----|

Guitar II
   E E E E E E E E E E E E E E E E E
e|------------------------------------|
B|------------------------------------|
G|------------------------------------|
D|------------------------------------|
A|------------------------------------|
E|-3-3-3-3-3-3-3-3-3-3-3-3-3-3-3-3-3--|



Guitar I
e|---------------------------------------------|
B|-3/0--3/0--3/0-----3-----3/0--3/0--3/0-----3-|
G|-3/0--3/0--3/0-----3-----3/0--3/0--3/0-----3-|
D|-3/0--3/0--3/0-----3-----3/0--3/0--3/0-----3-|
A|---------------------------------------------|
E|---------------------------------------------|

Guitar II
   E E E E E E E E E E E E E E E E E E E E E E
e|---------------------------------------------|
B|---------------------------------------------|
G|---------------------------------------------|
D|---------------------------------------------|
A|---------------------------------------------|
E|-3-3-3-3-3-3-3-3-3-3-3-3-3-3-3-3-3-3-3-3-3-3-|



Guitar I
e|----------------------|
B|-3/0--3/0--3/0-----3--|
G|-3/0--3/0--3/0-----3--|
D|-3/0--3/0--3/0-----3--|
A|----------------------|
E|----------------------|

Guitar II
   E E E E E E E E E E
e|----------------------|
B|----------------------|
G|----------------------|
D|----------------------|
A|----------------------|
E|-3-3-3-3-3-3-3-3-3-3--|


Key:
W = Whole Note
Ha = Half Note
Q = Quarter Note
E = Eighth Note
S = Sixteenth Note

H = Held Note

/ = Slide
Tap to rate this tab
# A B C D E F G H I J K L M N O P Q R S T U V W X Y Z