Song name
# A B C D E F G H I J K L M N O P Q R S T U V W X Y Z

Aerosmith - Shut Up And Dance tab

Rhythm
e|------------------------------|
B|------------------------------|
G|------------------------------|
D|-5--5--x-3-5--x-3-5--5--x-3-5-|
A|-5--5--x-3-5--x-3-5--5--x-3-5-|
E|-3--3--x-1-3--x-1-3--3--x-1-3-|

Lead
e|------------------------------|
B|------------------------------|
G|------------------------------|
D|------------------------------|
A|------------------------------|
E|------------------------------|



Rhythm
e|------------------------------|
B|------------------------------|
G|------------------------------|
D|-5--5--x-3-5--x-3-5--5--x-3-5-|
A|-5--5--x-3-5--x-3-5--5--x-3-5-|
E|-3--3--x-1-3--x-1-3--3--x-1-3-|

Lead
e|------------------------------|
B|------------------------------|
G|------------------------------|
D|-5--5--x-3-5--x-3-5--5--x-3-5-|
A|-5--5--x-3-5--x-3-5--5--x-3-5-|
E|-3--3--x-1-3--x-1-3--3--x-1-3-|



Rhythm
e|--------------------------------------------------------------|
B|--------------------------------------------------------------|
G|--------------------------------------------------------------|
D|-5--5--x-3-5--x-3-5--5--x-3-5----5--5--x-3-5--x-3-5--5--x-3-5-|
A|-5--5--x-3-5--x-3-5--5--x-3-5----5--5--x-3-5--x-3-5--5--x-3-5-|
E|-3--3--x-1-3--x-1-3--3--x-1-3----3--3--x-1-3--x-1-3--3--x-1-3-|

Lead
e|--------------------------------------------------------------|
B|--------------------------------------------------------------|
G|-14b--14--12----10h12-10h12~~~~~~~~~~~------------------------|
D|--------------------------------------------------------------|
A|--------------------------------------------------------------|
E|--------------------------------------------------------------|



Rhythm
e|--------------------------------------------------------------|
B|--------------------------------------------------------------|
G|--------------------------------------------------------------|
D|-5--5--x-3-5--x-3-5--5--x-3-5----5--5--x-3-5--x-3-5--5--x-3-5-|
A|-5--5--x-3-5--x-3-5--5--x-3-5----5--5--x-3-5--x-3-5--5--x-3-5-|
E|-3--3--x-1-3--x-1-3--3--x-1-3----3--3--x-1-3--x-1-3--3--x-1-3-|

Lead
e|--------------------------------------------------------------|
B|--------------------------------------------------------------|
G|-14b--14--12----10h12-10h12~~~~~~~~~~~------------------------|
D|--------------------------------------------------------------|
A|--------------------------------------------------------------|
E|--------------------------------------------------------------|




Key:

b = Bend

h = Hammer On

~ = Vibrato
Tap to rate this tab
# A B C D E F G H I J K L M N O P Q R S T U V W X Y Z