Song name
# A B C D E F G H I J K L M N O P Q R S T U V W X Y Z

Aerosmith - Home Tonight tab

Joe Perry Solo
  Cm                             F
e|-3~~(3)-------3---3-------3---|---------------------------------|
B|-4~~(4)-------4---4-------4---|-----4-6-4h6p4---4-------4b5-----|
G|--------5-5~~---5---5-5~~---5-|-5~~-----------5---5-5~~-----5-3-|
D|------------------------------|---------------------------------|
A|------------------------------|---------------------------------|
E|------------------------------|---------------------------------|

  Bb                             Eb
e|------------------------------|--------------3------------------|
B|------4-6-6b8~~---4-6-6b8r6p4-|-6b8~~r7b8~~~---6b8r6p4---4h6b8~~|
G|-5~~--------------------------|------------------------5--------|
D|------------------------------|---------------------------------|
A|------------------------------|---------------------------------|
E|------------------------------|---------------------------------|

  Cm                             F  
e|------------------------------|---------------------------------|
B|-6-6~~~--6-6-6-6p5-----6-4----|-4--4p3-3s1-1h3-1-4-3b4r3p1---1--|
G|---------------------x-----5--|----------------------------2----|
D|-------------------5----------|---------------------------------|
A|------------------------------|---------------------------------|
E|------------------------------|---------------------------------|

  Bb
e|----------------------------------------8--|
B|------------------------------11---------11|
G|-3p0---------------8----10b12~~~(12)r10----|
D|-----3\------/8-10---10--------------------|
A|----------/6-------------------------------|
E|-------------------------------------------|

  Eb7
e|-------------------------------------------------|
B|11b13~~-11p8----8--------------------------------|
G|-------------10---10p9-8------8------------------|
D|---------------------------10---10p8-------------|
A|-------------------------------------10---8---6--|
E|-------------------------------------------------|
Tap to rate this tab
# A B C D E F G H I J K L M N O P Q R S T U V W X Y Z