Guitaretab - guitar tabs
Song name
# A B C D E F G H I J K L M N O P Q R S T U V W X Y Z

Aerosmith - Angel tab

-------------------------------------------------------------------------------
			     Angel - Aerosmith
-------------------------------------------------------------------------------
Tabbed by: Dom Nole
Email: neversleeps84@verizon.net

Tuning: standard

guitar 1 (Joe Perry)

guitar 2 (Brad Whitford)


You must listen to the song while reading this tab to get the hang of it because
I didn't include any timing notation

Intro (guitar 1)

e|--------------------------------------------------------------------------|
B|-16~~~~-------------------------------------------------------------------|
G|--------------------------------------------------------15p12--15p12------|
D|----------------------13--15--15b17r15p13--15b17r15b17--------------------|
A|--------------13--15------------------------------------------------------|
E|--------------------------------------------------------------------------|

e|--------------------------------------------------------------------------|
B|--------------------------------------------------------------16----16----|
G|-17p15p13--15~~---13h15p13h15p13h15p13h15p13h15b17 hold bend-----17----17-|
D|--------------------------------------------------------------------------|
A|--------------------------------------------------------------------------|
E|--------------------------------------------------------------------------|

e|-15~~~~-------15--16p15--16p15--16p15-------------------------------------|
B|---------------------------------------16~~---16\------15b16r15--13-------|
G|---------------------------------------------------------------------15---|
D|--------------------------------------------------------------------------|
A|--------------------------------------------------------------------------|
E|--------------------------------------------------------------------------|

e|--------------------------------------------------------------------------|
B|--------------------------------------------------------------------------|
G|-15b17r15--13--12--13p12--12----------------------------------------------|
D|------------------------------15--15p13--13---------13--13/15-------------|
A|---------------------------------------------13/15------------------------|
E|--------------------------------------------------------------------------|

e|--------------------------------------------------------------------------|
B|--------------------------------------------------------------------------|
G|--------------------------------------------------------------------------|
D|-15--15--15/17--17b18r17--17\15r13b15r13b15r13b15r13b15r13~~~~~-----------|
A|--------------------------------------------------------------------------|
E|--------------------------------------------------------------------------|

Intro (2x) (guitar 2)

e|--------------------------------------------------------------------------|
B|--------------------------------------------------------------------------|
G|--------------------------------------------------------------------------|
D|-8------------------------------------------------------------------------|
A|-6----8--6----10----8--6--------------------------------------------------|
E|------6--4----8-----6--4--------------------------------------------------|

Verse (guitars 1 & 2)

e|--------------------------------------------------------------------------|
B|-------------4-----4-----------------4-----4------------------------------|
G|-------------3-----3-----------------3-----3------------------------------|
D|-1-----1--------1-----1--1-----1--------1-----1/3-------------------------|
A|----1-----1-----------------1-----1---------------------------------------|
E|--------------------------------------------------------------------------|

e|--------------------------------------------------------------------------|
B|--------------------------------------------------------------------------|
G|--------5-----5-----6-----6-----5--5--------------------------------------|
D|-----6--6-----6-----6-----6-----6--6--------------------------------------|
A|---6----------------------------------------------------------------------|
E|-4---------4-----4-----4-----4--------------------------------------------|
[ Tab from: http://www.guitaretab.com/a/aerosmith/218.html ]
e|--------------------------------------------------------------------------|
B|-------------4-----4-------4-----4-----4----------4-----4-----4-----------|
G|-------------3-----3-------3-----3-----3----------3-----3-----3-----------|
D|-1-----1--------1---------------------------------------------------------|
A|----1-----1-------------3-----3-----3-----3-----------------------66666666|
E|---------------------------------------------3-------3-----3----3-44444444|

Pre-Chorus (guitars 1 & 2)

e|----------------------------|
B|----------------------------|
G|----------------------------|  X 3, then
D|----------------------------|
A|-88----10-10---6------------|
E|-66----8--8----4--let ring--|

e|--------------------------------------------------------------------------|
B|--------------------------------------------------------------------------|
G|--------------------------------------------------------------------------|
D|--------------------------------------------------------------------------|
A|-888888888----start softly and gradually stum harder----------------------|
E|-666666666----------------------------------------------------------------|

Chorus (guitars 1 & 2)

e|--------------------------------------------------------------------------|
B|--------------------------------------------------------------------------|
G|--------------------------------------------------------------------------|
D|-8------------------------------------------------------------------------|
A|-6----8--6----10----8--6--------------------------------------------------|
E|------6--4----8-----6--4--------------------------------------------------|

Solo (guitar 1)

e|----------------------------------------------------------------------------|
B|----------------------------------------------------------------------------|
G|---------13-----------------------------------------------------------------|
D|-13--17------15--15h17p15--13~------13--------------------------------------|
A|---------------------------------13----15~----13--11--10--10h11p10--8--6--6-|
E|-------------------------------------------------------------------------8--|

e|----------------------------------------------------------------------------|
B|--------------------------11b13r11~-----------------------------------------|
G|-------------8--8b10r8~--------------10b12r10~----12p10p8--8-xx--------8-8~-|
D|-------6--8-------------------------------------------------------8--10-----|
A|-6--8-----------------------------------------------------------------------|
E|----------------------------------------------------------------------------|

                                                      rake down
e|-------------------------------------------------------8--------------------|
B|---------------------------------------------------------8---------------11-|
G|------------------------8--10--10b12r10--8------10---------8------8-10b12---|
D|-----------------8--10----------------------10----------------10------------|
A|-10--11--13--13-------------------------------------------------------------|
E|----------------------------------------------------------------------------|

e|---------------------11-----------11----------------------------------------|
B|-----------------------------------------------------999b gradually to-11---|
G|-pb12r10-----10b12-------pb12r10------10--8--10--10-------------------------|
D|----------------------------------------------------------------------------|
A|----------6-----------------------------------------------------------------|
E|----------------------------------------------------------------------------|


Bridge (guitars 1 & 2)

e|---------------------------------------------------------------------------|
B|---------------------------------------------------------------------------|
G|---------------------------------------------------------------------------|
D|-8---------8----5----------------------------------------------------------|
A|-6----6----6----3----6----8888-keep strumming------------------------------|
E|------4--------------4----6666---------------------------------------------|

Song Order:

Intro
Verse
Pre-Chorus
Chorus
Verse
Pre-Chorus
Chorus
Solo
Bridge
Chorus


Notes:

To do the  two pre-bends in the solo, place your finger on the 10th fret and bend it up 
pitch
BEFORE you pluck it.  Pluck the string, then release the bend back to the original pitch.
This requires ear training, and also muscle memory so your fingers don't bend too far or 
far enough.
I pulled my hair out getting this technique down, and I'm still not that great at it,
it sounds awesome
when you finally start to nail it.  Hope everyone enjoys the tab and isn't confused by
I hope it isn't sloppy.


| /  slide up
| \  slide down
| h  hammer-on
| p  pull-off
| ~  vibrato
| +  harmonic
| x  Mute note
| pb pre-bend
===============================================================================
Related for Angel tab
Angel chords by Aerosmith