Song name
# A B C D E F G H I J K L M N O P Q R S T U V W X Y Z

Aerosmith - Cryin tab

solo

  A#5  C5   F5   G5                           
e---------------------|----------------------------------|
B---------------------|----------------------------------|
G-3----5--------------|---17b-17b~~-17b-15h17p15~~-17/---| 
D-3----5----3----5----|----------------------------------|
A-1----3----3----5----|----------------------------------|
E-----------1----3----|----------------------------------| 

rif 1 repeats 

e|------------------------------|------------------------------| 
b|------------------------------|------------17b-----------17b-| 
g|-----15-17-17br17-15----------|--15----15--17b--17-15-17-17b-| 
d|--17-----------------17-17/~~-|--15-17-----------------------| 
a|------------------------------|------------------------------| 
e|------------------------------|------------------------------| 

e|--------18h20br20-18--20b-20p18-20b-20p18--20b~~~~-| 
b|--18h20--------------------------------------------| 
g|---------------------------------------------------| 
d|---------------------------------------------------| 
a|---------------------------------------------------| 
e|---------------------------------------------------|
Tap to rate this tab
# A B C D E F G H I J K L M N O P Q R S T U V W X Y Z