Song name
# A B C D E F G H I J K L M N O P Q R S T U V W X Y Z

Aerosmith - Hole In My Soul tab

Hole In My Soul by Aerosmith
Intro tabbed by Ryan
Hi to all my friends. To my hard rockin` amigos in JB. kamusta kayo!! hehehe.

E---4-----4-----6-----6-----7-----7-----6-----6-----4-----4-----4--|
B---5--5-----5--5--5-----5--5--5-----5--5--5-----5--4--4-----4-----|
G------------------------------------------------------------------|
D------------------------------------------------------------------|
A------------------------------------------------------------------|
E------------------------------------------------------------------|


E-----4-----2-----2-----2-----2------------------------------------|
B--4-----4--4--4-----4-----4-----4---------------------------------|
G------------------------------------------------------------------|
D------------------------------------------------------------------|
A------------------------------------------------------------------|
E------------------------------------------------------------------|

AHAH!!! gus abelgas, naguulat. hehehe
Tap to rate this tab
# A B C D E F G H I J K L M N O P Q R S T U V W X Y Z