Song name
# A B C D E F G H I J K L M N O P Q R S T U V W X Y Z

Aerosmith - Janies Got A Gun tab

JANIE'S GOT A GUN
As recorded by Aerosmith
(From the 1989 Album PUMP
	

Words and Music by Steven Tyler and Tom Hamilton

Gtr I (F Bb Eb Ab C F) - 'Clean w/ chorus'
Gtr II (F Bb Eb Ab C F) - 'Distortion'
Gtr III (F Bb Eb Ab C F) - 'Clean '

 Intro
  Moderately Q=112
 4/4
  Gtr I
  H    E Q.     Q.   E +H       Q  Q.   Q.     H    H
|-------------|---------------|--------------|-----------|
|-------------|---------------|--------------|-----------|
|-------------|---------------|--------------|-----------|
|--------9----|-9----9-(9)----|-9-------9----|-9----9----|
|--------7----|-7----7-(7)----|-7-------7----|-7----7----|
|-------------|---------------|--------------|-----------|


  Q  Q.   Q.     Q.   E +Q   Q    Q  Q.   Q.     H    H
|--------------|----------------|--------------|-----------|
|--------------|----------------|--------------|-----------|
|--------------|----------------|--------------|-----------|
|-9-------9----|-9----9-(9)--9--|-9-------9----|-9----9----|
|-7-------7----|-7----7-(7)--6--|-7-------7----|-7----7----|
|--------------|----------------|--------------|-----------|


  Q  Q  Q  Q    E Q  E H      Q  Q  Q  Q    E E E E H
|-------------|-------------|-------------|--------------|
|-------------|-------------|-------------|--------------|
|-------------|-------------|-------------|---9----------|
|----9-----9--|---9----9----|----9-----9--|---9-----9----|
|----7-----7--|---7----7----|----7-----7--|-9-7-----9----|
|-------------|-------------|-------------|-7---7-7------|


  Q  Q  Q  Q    E Q  E H      Q  Q  Q  Q    E E E E E E E  E
|-------------|-------------|-------------|-------------------|
|-------------|-------------|-------------|-------------------|
|-------------|-------------|-------------|---9---------------|
|----9-----9--|---9----9----|----9-----9--|---9-----9------9--|
|----7-----7--|---7----7----|----7-----7--|-9-7-----9-----11--|
|-------------|-------------|-------------|-7---7-7---7-7-----|


                      Verse
  E E  E E  E E  Q     Q  Q  Q  Q    E Q    E   H
|-------------------||-------------|-----------------------|
|-------------------||-------------|-----------------------|
|-------------------||-------------|-----------------------|
|------9----9----9--||----9-----9--|---9--------9----------|
|-----12---12---12--||----7-----7--|---7--------9----------|
|-9-9----9----9-----||-------------|-7------7--------------|
|
| Gtr II
|                                         <
| W                    W             Q    Q    +Q.    +E
|-------------------||-------------|-----------------------|
|-------------------||-------------|-----16---(16)---(16)\-|
|-------------------||-------------|-----16---(16)---(16)\-|
|-------------------||-------------|-----16---(16)---(16)\-|
|-------------------||-------------|-----14---(14)---(14)\-|
|-------------------||-------------|-----------------------|


  Q  Q  Q  Q    E Q    E   H
|-------------|--------------------------|
|-------------|--------------------------|
|-------------|--------------------------|
|----9-----9--|---9--------9-------------|
|----7-----7--|---7--------9-------------|
|-------------|-7------7-----------------|
|
|                    <
| W             Q    Q    +Q.    +E
|-------------|--------------------------|
|-------------|-----16---(16)---(16)\----|
|-------------|-----16---(16)---(16)\----|
|-------------|-----16---(16)---(16)\----|
|-------------|-----14---(14)---(14)\----|
|-------------|--------------------------|


  Q  Q  Q  Q    E Q    E   H            Q  Q  Q  Q    E Q    E   H
|-------------|-----------------------|-------------|------------------------||
|-------------|-----------------------|-------------|------------------------||
|-------------|-----------------------|-------------|------------------------||
|----9-----9--|---9--------9----------|----9-----9--|---9--------9-----------||
|----7-----7--|---7--------9----------|----7-----7--|---7--------9-----------||
|-------------|-7------7--------------|-------------|-7------7---------------||
|
|                    <                                     <
| W             Q    Q    +Q.    +E     W             Q    Q    +Q.    +E
|-------------|-----------------------|-------------|------------------------||
|-------------|-----16---(16)---(16)\-|-------------|-----16---(16)---(16)\--||
|-------------|-----16---(16)---(16)\-|-------------|-----16---(16)---(16)\--||
|-------------|-----16---(16)---(16)\-|-------------|-----16---(16)---(16)\--||
|-------------|-----14---(14)---(14)\-|-------------|-----14---(14)---(14)\--||
|-------------|-----------------------|-------------|------------------------||


 Pre-Chorus
  PM|   PM  PM      PM|   PM    PM------|   PM  PM      PM|   PM    PM|
  e e E e E e E E   e e E e E E e e   e e E e E e E E   e e E e E E e e
|-----------------|-----------------|-----------------|------------------||
|-----------------|-----------------|-----------------|------------------||
|-----4---1-2---4-|-----4---2-4-----|-----4---1-2---4-|-----4---2-4------||
|-----4---2-2---4-|-----4---2-4-----|-----4---2-2---4-|-----4---2-4------||
|-2-2---2---0-0---|-2-2---2-----2-2-|-2-2---2---0-0---|-2-2---2-----2-2--||
|-0-0---0---------|-----------------|-0-0---0---------|------------------||


 Chorus
  E E E E E E Q     E E E E E E Q    Q  Q.   Q.
|-4s5-4s5-4s5-4---|-4s5-4s5-4s5-4--|--------------|
|-4s5-4s5-4s5-4---|-4s5-4s5-4s5-4--|--------------|
|-----------------|----------------|--------------|
|-----------------|----------------|----2----0----|
|-----------------|----------------|----2----0----|
|-----------------|----------------|-0------------|
|
| Gtr II
| H.          E E   W                Q  Q.   Q.
|-----------------|----------------|--------------|
|-----------------|----------------|--------------|
|-6---------------|-2--------------|--------------|
|-6---------------|-2--------------|----2----0----|
|-4-------------0-|-0--------------|----2----0----|
|-----------------|----------------|-0------------|


  Q.   Q.   Q    E E E E E E Q     E E E E E E Q
|--------------|-4s5-4s5-4s5-4---|-4s5-4s5-4s5-4--|
|--------------|-4s5-4s5-4s5-4---|-4s5-4s5-4s5-4--|
|--------------|-----------------|----------------|
|-5----0----2--|-----------------|----------------|
|-5----0----2--|-----------------|----------------|
|--------------|-----------------|----------------|
|
| Q.   Q.   Q    H.          E E   W
|--------------|-----------------|----------------|
|--------------|-----------------|----------------|
|--------------|-6---------------|-2--------------|
|-5----0----2--|-6---------------|-2--------------|
|-5----0----2--|-4-------------0-|-0--------------|
|--------------|-----------------|----------------|


  E E E  E E  E E E   Q  Q    Q    Q    Q  Q    Q     Q
|-4s5-4s=5-4s=5-4s5-|-----------------|-----------------------||
|-4s5-4s=5-4s=5-4s5-|-----------------|-----------------------||
|-------------------|-4--4----4----4--|-4--4----4-----4-------||
|-------------------|-4--4----4----4--|-4--4----4-----4-------||
|-------------------|-2--2----2----2--|-2--2----2-----2-------||
|-------------------|-----------------|-----------------------||
|
| W                   Q  Q    Q    Q    Q  Q    Q     Q
|-------------------|-----------------|-----------------------||
|-------------------|-----------------|-----------------------||
|-------------------|-4--4----4----4--|-4--4----4-----4-------||
|-4-----------------|-4--4----4----4--|-4--4----4-----4-------||
|-4-----------------|-2--2----2----2--|-2--2----2-----2-------||
|-2-----------------|-----------------|-----------------------||
|
| Gtr III
| Q   E  E E  E Q     Q  E  E E  E Q    Q  E  E E  E  E  S  S
|----------9--------|---------9-------|---------9----11-------||
|-----9h10---10p9---|----9h10---10p9--|----9h10---------------||
|-------------------|-----------------|-----------11----11s13-||
|-------------------|-----------------|-----------------------||
|-------------------|-----------------|-----------------------||
|-------------------|-----------------|-----------------------||


 Verse
  $
    Q   Q  Q  Q    E   Q   E    H
|----------------|---------------------|
|----------------|---------------------|
|----------------|---------------------|
|-------9-----9--|-----9--------9------|
|-------7-----7--|-----7--------9------|
|----------------|-7-------7-----------|
|
|   W              E   Q.      +H
|----------------|---------------------|
|----------------|---<12>----(<12>)----|
|----------------|---------------------|
|----------------|---------------------|
|----------------|---------------------|
|----------------|---------------------|
|
|   H      H       W
|--12------------|---------------------|
|----------------|---------------------|
|-(13)-----------|---------------------|
|----------------|---------------------|
|----------------|---------------------|
|----------------|---------------------|


     Q    Q  Q  Q    E  Q   E   H
|------------------|------------------------|
|------------------|------------------------|
|------------------|------------------------|
|---------9-----9--|----9-------9-----------|
|---------7-----7--|----7-------9-----------|
|------------------|-7------7---------------|
|
|   +H       H       E  Q.     +Q      Q
|------------------|------------------------|
|-(<12>)-----------|-----------------<12>---|
|------------------|------------------------|
|------------------|------------------------|
|------------------|---<7>----(<7>)---------|
|------------------|------------------------|
|
|    W               W
|------------------|------------------------|
|------------------|------------------------|
|------------------|------------------------|
|------------------|------------------------|
|------------------|------------------------|
|------------------|------------------------|


     Q    Q  Q  Q       E   Q  E H
|------------------|------------------|
|------------------|------------------|
|------------------|------------------|
|---------9-----9--|--------9----9----|
|---------7-----7--|--------7----9----|
|------------------|----7------7------|
|
|   +W                 +H        H
|------------------|------------------|
|-(<12>)-----------|-(<12>)-----------|
|------------------|------------------|
|------------------|------------------|
|------------------|------------------|
|------------------|------------------|


  Q   Q   Q      Q      E  Q   E    H
|-------------------|----------------------||
|-------------------|----------------------||
|-------------------|----------------------||
|-----9----------9--|------9--------9------||
|-----7----------7--|------7--------9------||
|-------------------|---7------7-----------||
|
| Q   Q.      Q.        Q.     E   +H
|-------------------|-<12>-----------------||
|-----------<12>----|---------<7>-(<7>)----||
|-------------------|----------------------||
|-------------------|----------------------||
|----<7>------------|----------------------||
|-------------------|----------------------||


 Pre-Chorus
  PM|   PM  PM      PM|   PM    PM------|   PM  PM      PM|   PM      PM
  e e E e E e E E   e e E e E E e e   e e E e E e E E   e e E e E E E e
|-----------------|-----------------|-----------------|------------------||
|-----------------|-----------------|-----------------|------------------||
|-----4---1-2---4-|-----4---2-4-----|-----4---1-2---4-|-----4---2-4------||
|-----4---2-2---4-|-----4---2-4-----|-----4---2-2---4-|-----4---2-4------||
|-2-2---2---0-0---|-2-2---2-----2-2-|-2-2---2---0-0---|-2-2---2-------0--||
|-0-0---0---------|-----------------|-0-0---0---------|------------------||


 Chorus
  E E E E E E Q     E E E E E E Q    Q  Q.      Q.      Q.   Q.   Q
|-4s5-4s5-4s5-4---|-4s5-4s5-4s5-4--|------------------|---------------|
|-4s5-4s5-4s5-4---|-4s5-4s5-4s5-4--|------------------|---------------|
|-----------------|----------------|------------------|---------------|
|-----------------|----------------|----2-------0-----|-5----0----2---|
|-----------------|----------------|----2-------0-----|-5----0----2---|
|-----------------|----------------|-0----------------|---------------|
|
| Gtr II
| H.          E E   W                Q  Q   +Q.     E   H.        Q
|-----------------|----------------|------------------|---------------|
|-----------------|----------------|------------------|---------------|
|-6---------------|-2--------------|------------------|---------------|
|-6---------------|-2--------------|------------------|---------------|
|-4-------------0-|-0--------------|------------------|---------------|
|-----------------|----------------|-0--0---(0)-----0-|-0-------------|


  Q  E E E E Q     Q  E E E E Q     +Q   E E E E Q
|----4s5-4s5-4---|----4s5-4s5-4---|-(4)--4s5-4s5-4--|
|----4s5-4s5-4---|----4s5-4s5-4---|-(4)--4s5-4s5-4--|
|----------------|----------------|-----------------|
|----------------|----------------|-----------------|
|----------------|----------------|-----------------|
|----------------|----------------|-----------------|
|
| Q  Q   Q   E E   Q  Q   Q   E E    Q   Q   Q   Q
|----------------|----------------|-----------------|
|----------------|----------------|-----------------|
|----------------|----------------|-----------------|
|-6--6---6---6---|-2--2---2---2---|--4---4---4---4--|
|-4--4---4---4---|-0--0---0---0---|--4---4---4---4--|
|----------------|----------------|--2---2---2---2--|


  Q  E  E E  E Q    Q  E  E E  E Q    Q  E  E E  E Q    E  E E  E E  E  E  E
|---------9-------|---------9-------|---------9-------|-----------9----11-----||
|----9h10---10p9--|----9h10---10p9--|----9h10---10p9--|---10-9h10---10--------||
|-----------------|-----------------|-----------------|-------------------11--||
|-----------------|-----------------|-----------------|-----------------------||
|-----------------|-----------------|-----------------|-----------------------||
|-----------------|-----------------|-----------------|-----------------------||
|
| Q  Q    Q    Q    Q  Q    Q    Q    Q  Q    Q    Q    Q    Q    Q     Q
|-----------------|-----------------|-----------------|-----------------------||
|-----------------|-----------------|-----------------|-----------------------||
|-----------------|-----------------|-----------------|-----------------------||
|-4--4----4----4--|-4--4----4----4--|-4--4----4----4--|-4----4----4-----4-----||
|-2--2----2----2--|-2--2----2----2--|-2--2----2----2--|-2----2----2-----2-----||
|-----------------|-----------------|-----------------|-----------------------||


 Bridge
          E  E         E  E         E  E         E  E
|-----------------------------------------------------|
|-----------------------------------------------------|
|-----------------------------------------------------|
|------------9--------10p=9--------10p=9--------10p=9-|
|-----------------------------------------------------|
|-----------------------------------------------------|
|
|         H.                                    +E  E
|-----------------------------------------------------|
|-----------------------------------------------------|
|---------5-------------------------------------(5)---|
|---------5-------------------------------------(5)---|
|---------3-------------------------------------(3)---|
|-----------------------------------------------------|
|
| Gtr IIGtr III
|  a      Q     a      Q     a      Q     a      Q
|--------12-----------12-----------12-----------12----|
|-15b17-(15)---15b17-(15)---15b17-(15)---15b17-(15)---|
|-----------------------------------------------------|
|-----------------------------------------------------|
|-----------------------------------------------------|
|-----------------------------------------------------|


          E  E         E  E         E  E         E  E           W           +H.           Q
|-----------------------------------------------------|-------------------|--------------------|
|-----------------------------------------------------|-------------------|--------------------|
|-----------------------------------------------------|-------------------|--------------------|
|--------10p=9--------10p=9--------10p=9--------10p=9-|---------9---------|-(9)----------------|
|-----------------------------------------------------|-------------------|--------------------|
|-----------------------------------------------------|-------------------|--------------------|
|
|         H.                                    +E  E           W            E  Q.   +Q   Q
|-----------------------------------------------------|-------------------|--------------------|
|-----------------------------------------------------|-------------------|-----7----(7)-------|
|---------7-------------------------------------(7)-7-|-------------------|-----7----(7)-------|
|---------7-------------------------------------(7)-7-|---------2---------|-----7----(7)-------|
|---------5-------------------------------------(5)---|---------2---------|--------------------|
|-----------------------------------------------------|---------0---------|--------------------|
|
|  a      Q     a      Q     a      Q     a      Q       a      W            W
|--------12-----------12-----------12-----------12----|--------12---------|--------------------|
|-15b17-(15)---15b17-(15)---15b17-(15)---15b17-(15)---|-15b17-(15)--------|--------------------|
|-----------------------------------------------------|-------------------|--------------------|
|-----------------------------------------------------|-------------------|--------------------|
|-----------------------------------------------------|-------------------|--------------------|
|-----------------------------------------------------|-------------------|--------------------|


          E  E         E  E         E  E         E  E
|-----------------------------------------------------|
|-----------------------------------------------------|
|-----------------------------------------------------|
|--------10p=9--------10p=9--------10p=9--------10p=9-|
|-----------------------------------------------------|
|-----------------------------------------------------|
|
|         H.                                    +E  E
|-----------------------------------------------------|
|-----------------------------------------------------|
|---------5-------------------------------------(5)---|
|---------5-------------------------------------(5)---|
|---------3-------------------------------------(3)---|
|-----------------------------------------------------|
|
|  a      Q     a      Q     a      Q     a      Q
|--------12-----------12-----------12-----------12----|
|-15b17-(15)---15b17-(15)---15b17-(15)---15b17-(15)---|
|-----------------------------------------------------|
|-----------------------------------------------------|
|-----------------------------------------------------|
|-----------------------------------------------------|


          E  E         E  E         E  E         E  E   Q   Q.                 Q.
|-----------------------------------------------------|------------------------------|
|-----------------------------------------------------|------------------------------|
|-----------------------------------------------------|------------------------------|
|--------10p=9--------10p=9--------10p=9--------10p=9-|-----2------------------0-----|
|-----------------------------------------------------|-----2------------------0-----|
|-----------------------------------------------------|------------------------------|
|
|         H.                                    +E  E   W
|-----------------------------------------------------|------------------------------|
|-----------------------------------------------------|------------------------------|
|---------7-------------------------------------(7)-7-|------------------------------|
|---------7-------------------------------------(7)-7-|-2----------------------------|
|---------5-------------------------------------(5)---|-2----------------------------|
|-----------------------------------------------------|-0----------------------------|
|
|  a      Q     a      Q     a      Q     a      Q      Q.      a      E   +H
|--------12-----------12-----------12-----------12----|---------------12--(12)-------|
|-15b17-(15)---15b17-(15)---15b17-(15)---15b17-(15)---|--------15b17-(15)-(15)r======|
|-----------------------------------------------------|------------------------------|
|-----------------------------------------------------|------------------------------|
|-----------------------------------------------------|------------------------------|
|-----------------------------------------------------|------------------------------|


    Q.     Q.      Q            E  E         E  E         E  E         E  E
|---------------------|-----------------------------------------------------|
|---------------------|-----------------------------------------------------|
|---------------------|-----------------------------------------------------|
|---5------0-------2--|--------10p=9--------10p=9--------10p=9--------10p=9-|
|---5------0-------2--|-----------------------------------------------------|
|---------------------|-----------------------------------------------------|
|
|   E  Q.     +Q   Q            Q.              E         Q            Q
|---------------------|-----------------------------------0-----------------|
|------7------(7)-----|-------------------------0----------------------0----|
|------7------(7)-----|---------5-------------------------------------------|
|------7------(7)-----|---------5-------------------------------------------|
|---------------------|---------3-------------------------------------------|
|---------------------|-----------------------------------------------------|
|
|  +H.             Q     a      Q     a      Q     a      Q     a      Q
|-(12)----------------|--------12-----------12-----------12-----------12----|
|-(15)----------------|-15b17-(15)---15b17-(15)---15b17-(15)---15b17-(15)---|
|---------------------|-----------------------------------------------------|
|---------------------|-----------------------------------------------------|
|---------------------|-----------------------------------------------------|
|---------------------|-----------------------------------------------------|


          E  E         E  E         E  E         E  E
|------------------------------------------------------|
|------------------------------------------------------|
|------------------------------------------------------|
|--------10p=9--------10p=9--------10p=9--------10p=9--|
|------------------------------------------------------|
|------------------------------------------------------|
|
|         Q.              E         Q            E  E
|-----------------------------------0------------------|
|-------------------------0----------------------------|
|---------7--------------------------------------------|
|---------7--------------------------------------7--0--|
|---------5--------------------------------------5--0--|
|------------------------------------------------------|
|
|  a      Q     a      Q     a      Q     a      Q
|--------12-----------12-----------12-----------12-----|
|-15b17-(15)---15b17-(15)---15b17-(15)---15b17-(15)----|
|------------------------------------------------------|
|------------------------------------------------------|
|------------------------------------------------------|
|------------------------------------------------------|


          E  E         E  E         E  E         E  E           E  E         E  E      E  E  E  E
|-----------------------------------------|-----------------------------------------------------|
|-----------------------------------------|-----------------------------------------------------|
|-----------------------------------------|-----------------------------------------------------|
|10p=9----10p=9--------10p=9--------10p=9-|--------10p=9--------10p=9--------10p=9----10p=9-----|
|---------------------------------------------|-------------------------------------------------|
|---------------------------------------------|-------------------------------------------------|
|
|         Q.              E         H                           Q            Q          Q   Q
|---------------------------------------------|-----------------------------------0-------------|
|---------------------------------------------|----------------------0-------------------------0|
|-2---------------2---------2-----------------|-------------------------------------------------|
|-2---------------2---------2-----------------|---------4---------------------------------------|
|-0---------------0---------0-----------------|---------2---------------------------------------|
|---------------------------------------------|-------------------------------------------------|
|
|  a      Q     a      Q     a      Q     a      Q       a      Q     a      Q     a    Q  a  Q
|-------12-------12-----------12-----------12-|--------12-----------12-----------12-----------12-|
|15b17-(15)-15b17-(15)-15b17-(15)---15b17-(15)|-15b17-(15)---15b17-(15)---15b17-(15)---15b17-(15)|
|---------------------------------------------|--------------------------------------------------|
|-------------------------------------------------|----------------------------------------------|
|-------------------------------------------------|----------------------------------------------|
|-------------------------------------------------|----------------------------------------------|


                                                   To Coda
          E  E         E  E         E  E         E    E
|------------------------------------------------------------||
|------------------------------------------------------------||
|------------------------------------------------------------||
|--------10p=9--------10p=9--------10p=9--------10p===9------||
|------------------------------------------------------------||
|------------------------------------------------------------||
|
|         Q            Q            Q            Q
|---------0-------------------------0------------------------||
|----------------------0-------------------------0-----------||
|------------------------------------------------------------||
|------------------------------------------------------------||
|------------------------------------------------------------||
|------------------------------------------------------------||
|
|  a      Q     a      Q     a      Q     a      E   +E
|--------12-----------12-----------12-----------12--(12)\----||
|-15b17-(15)---15b17-(15)---15b17-(15)---15b17-(15)-(15)\----||
|------------------------------------------------------------||
|------------------------------------------------------------||
|------------------------------------------------------------||
|------------------------------------------------------------||


 Guitar Solo
  Gtr III
  |3| |-3-| |3|   |3|
  Q E E E E E Q   E Q     S S S S S S S S +T  T S S S +Q
|-----------------------|-----------------------------------|
|-----------------------|-----------------------------------|
|-----------------------|-----------------------------------|
|-2-2-2-2-2-2-2---2-2---|-2p0-------2---------0-------------|
|-----------------------|-----0h2-0---0h2-(2)---------------|
|-----------------------|-----------------------3p0-3-(3)p==|
|
| Gtr I
| Q   Q     E   Q     E   Q       E   E   +Q           E  E
|-----------------------|-----------------------------------|
|-----------------------|-----------------------------------|
|-----4-----------------|-0-----------2---(2)----------2----|
|-----2-----0---0-----0-|-0-----------2---(2)----------2--0-|
|-2---------0---0-------|-----------------------------------|
|-0---------------------|-----------------------------------|


  E. S +E  S   +S  +E.   a    +S  +S  S E
|----0-(0)----------------------------0----|
|----0-(0)----------------------------0----|
|----------2b4-(2)-(2)---2pb4-(2)-(2)---2--|
|------------------------------------------|
|------------------------------------------|
|-0----------------------------------------|
|
| Q     Q           E  Q                E
|------------------------------------------|
|------------------------------------------|
|-------4----------------------------------|
|-------2-----------0--0----------------0--|
|-2-----------------0--0-------------------|
|-0----------------------------------------|


            |-3-|
  +S  E S E S S S E a   +S  +S  S S E
|-----2p0-0-------0-------------------|
|-----0-0-0-3p0---0-----------------0-|
|-(2)-----------2---2b4-(2)r(2)p0---0-|
|---------------------------------2---|
|-------------------------------------|
|-------------------------------------|
|
|  Q      E Q.                  E   E
|-------------------------------------|
|-------------------------------------|
|--0--------2-------------------2-----|
|--0--------2-------------------2---0-|
|-------------------------------------|
|-------------------------------------|


                                                              ~~~~~~~
           |-3--| |-3--| |3|
  a Q.    +S  S S S  S S E S +S  S E   +S  S S S +S  S S  S S E. +E  S S
|------------------------------------|--------------------------------------|
|------------------------------------|-----2--------------0-----------------|
|------------------------------------|-----2---------0-2--0----------7S9----|
|-2s4-----(4)-2-0-4--2-0---0-(0)-----|---------------0-2--------------------|
|------------------------2-------0-4-|-(4)--------------------7--(7)--------|
|------------------------------------|-------3p0-(0)------------------------|
|
|   Q   Q         Q.               E    Q         E    Q.         E  E
|------------------------------------|--------------------------------------|
|------------------------------------|--------------------------------------|
|-------4----------------------------|--0--------------2----------2---------|
|-------2---------0----------------0-|--0--------------2----------2--0------|
|---2-------------0------------------|--------------------------------------|
|---0--------------------------------|--------------------------------------|


      |-3-| |-3--| |--3--|     |-3-| |--3---|  |--3--|  |--3---|
  E E E E E E  E E E E   E   a E E E E E    E  E  E  E  E  E   E
|--------------------------|-----------------------------------0-|
|-7---7---7----7---7-----7-|-----------------------------------0-|
|-7---7---7----7---7-----7-|-7s9-9-9-9-9----9-12-12-12-12-12-----|
|---9---9---9----9---9-----|-7s9-9-9-9-9----9-12-12-12-12-12-----|
|--------------------------|-------------------------------------|
|--------------------------|-------------------------------------|
|
| Q   Q     Q.         E       Q     E   Q.             E    E
|--------------------------|-------------------------------------|
|--------------------------|-------------------------------------|
|-----4--------------------|---0---------2--------------2--------|
|-----2-----0----------0---|---0---------2--------------2----0---|
|-2---------0--------------|-------------------------------------|
|-0------------------------|-------------------------------------|


   |--3--|  |--3--|  |--3---|  |---3---|
   E  E  E  E  E  E  E   E  E  E  E    E
|------------------------------------------|
|-12-12-12-12-12-12-12--12-12-12-12---12---|
|-12-12-12-12-12-12-12--12-12-12-12---12---|
|------------------------------------------|
|------------------------------------------|
|------------------------------------------|
|
|  Q        Q        Q.             E
|------------------------------------------|
|------------------------------------------|
|-----------4------------------------------|
|-----------2--------0--------------0------|
|--2-----------------0---------------------|
|--0---------------------------------------|


   a     +S   +S   E  S  S  E   E  E     +E   E
|------------------------------12------------12-|
|-14b15-(14)r(14)-12-14p12--------15b17-(15)----|
|-14b15-(14)r(14)-12-14p12-14-------------------|
|--------------------------14-------------------|
|-----------------------------------------------|
|-----------------------------------------------|
|
|         Q           E     Q.            E   E
|-----------------------------------------------|
|-----------------------------------------------|
|---------0-----------------2-------------2-----|
|---------0-----------------2-------------2---0-|
|-----------------------------------------------|
|-----------------------------------------------|


   E.  S  S  S  a     +S   S  E.  T  T  S  a     +S   E    E.  S  S  E    S S S E a   +E  S S
|-15--12---------------------12--12------------------12-|--------------------------------------|
|--------15p12------------12--------15p12------------12-|-15--12------------5p3p0-----------0--|
|--------------14b16-(14)-----------------14b16-(14)----|--------14p12------------2b4-(2)-2-0--|
|-------------------------------------------------------|--------------------------------------|
|-------------------------------------------------------|--------------------------------------|
|-------------------------------------------------------|--------------------------------------|
|
|  Q      Q                   Q.                      E    Q      E    Q.              E  E
|-------------------------------------------------------|--------------------------------------|
|-------------------------------------------------------|--------------------------------------|
|---------4---------------------------------------------|--0-----------2---------------2-------|
|---------2-------------------0-----------------------0-|--0-----------2---------------2--0----|
|--2--------------------------0-------------------------|--------------------------------------|
|--0----------------------------------------------------|--------------------------------------|


  a Q.     a E +E  E a E E   +E  a Q   E a Q.     a E
|--------------------------|--------------------------|
|------------------------3-|-(3)----------------------|
|-2s4------4s2-(2)-0-2s4---|-----4s2---0-2s4------4s2-|
|--------------------------|--------------------------|
|--------------------------|--------------------------|
|--------------------------|--------------------------|
|
|   PM-------------------------------------------------
|   e  e e   e  e  e   q      e    e e e   e  e e   E
|--------------------------|--------------------------|
|--------------------------|--------------------------|
|--------------------------|--------------------------|
|--------9---------9-------|---------9--------9-----9-|
|--------9------7--9-------|---------9-----7--9-----9-|
|---7--7-----7---------7---|--7----7---7--------7-----|
|
| Gtr II
|   E  E E   E +E  E   E E   +E    E E E   E  Q     E
|---0----0---0-(0)-------0-|-(0)-----0--------0-----0-|
|---0--0-----------0---0-0-|-(0)---0---0---0----------|
|--------------------------|--------------------------|
|--------------------------|--------------------------|
|--------------------------|--------------------------|
|--------------------------|--------------------------|


                                            D.S. al Coda
   E  E  a E E a E E a E E   a  E  E a E E a E E Q
|------------0-----0-----0-|-------0-----0-----0----------||
|----------0-----0-----0---|----0------0-----0---0--------||
|--2--0--2s4---2s4---2s4---|-2s=4----2s4---2s4------------||
|--------------------------|------------------------------||
|--------------------------|------------------------------||
|--------------------------|------------------------------||
|
|---------------------------------------------------|
| +E  e    q     e e   e e     +E  e   e e   e e e  e
|--------------------------|------------------------------||
|--------------------------|------------------------------||
|------------------------7-|---(7)-7---7-7---7-7-7--7-----||
|-(9)------9-------9-----7-|---(7)-7---7-7---7-7-7--7-----||
|-(9)------9-------9-------|------------------------------||
|-----7----------7-----7---|------------------------------||
|
| +E  Q.         Q     Q        Q      Q     Q   E.   S
|-(0)------------0---------|----0------------0------------||
|-----0----------------0---|----0------0-----0---0----0---||
|--------------------------|------------------------------||
|--------------------------|------------------------------||
|--------------------------|------------------------------||
|--------------------------|------------------------------||


  &
  Gtr I
  Q  Q  Q  Q     E  Q  E  H       Q    Q   Q     Q     E  Q  E  H
|-------------|-----------------|-------------------|-----------------|
|-------------|-----------------|-------------------|-----------------|
|-------------|-----------------|-------------------|-----------------|
|----9-----9--|-----9-----9-----|------9---------9--|-----9-----9-----|
|----7-----7--|-----7-----9-----|------7---------7--|-----7-----9-----|
|-------------|--7-----7--------|-------------------|--7-----7--------|
|
| Gtr II
| W              H        H       Q    Q.     Q.       H        H
|-------------|-<7>-------------|-------------------|-<7>-------------|
|-------------|-----------------|----<12>----<7>----|-----------------|
|-------------|-----------------|-------------------|-----------------|
|-------------|----------<4>----|-------------------|----------<4>----|
|-------------|----------<4>----|-------------------|----------<4>----|
|-------------|-----------------|-------------------|-----------------|


  Q    Q   Q     Q     E  Q  E  H
|-------------------|-----------------|
|-------------------|-----------------|
|-------------------|-----------------|
|------9---------9--|-----9-----9-----|
|------7---------7--|-----7-----9-----|
|-------------------|--7-----7--------|
|
| Q    Q.     Q.       H        H
|-------------------|-<7>-------------|
|----<12>----<7>----|-----------------|
|-------------------|-----------------|
|-------------------|----------<4>----|
|-------------------|----------<4>----|
|-------------------|-----------------|


  Q    Q   Q     Q      E    Q   E  H
|-------------------|---------------------||
|-------------------|---------------------||
|-------------------|---------------------||
|------9---------9--|--------9------9-----||
|------7---------7--|--------7------9-----||
|-------------------|---7--------7--------||
|
| Q    Q.     Q.       +E    Q.     H
|-------------------|---------------------||
|----<12>----<7>----|-(<7>)---------------||
|-------------------|---------------------||
|-------------------|-------<4>-----------||
|-------------------|--------------<4>----||
|-------------------|---------------------||


 Outro
  Q  Q  Q  Q    E Q  E H      Q  Q  Q  Q    E Q   E H
|-------------|-------------|-------------|-----------------|
|-------------|-------------|-------------|-----------------|
|-------------|-------------|-------------|-----------------|
|----9-----9--|---9----9----|----9-----9--|---9-----9-------|
|----7-----7--|---7----9----|----7-----7--|---7-----9-------|
|-------------|-7----7------|-------------|-7-----7---------|
|
| W             W             W             E Q.    Q.   E
|-------------|-------------|-------------|---0----------0--|
|-------------|-------------|-------------|---------0-------|
|-------------|-------------|-------------|-----------------|
|-------------|-------------|-------------|-----------------|
|-------------|-------------|-------------|-----------------|
|-------------|-------------|-------------|-----------------|


  Q      Q  Q  Q     E  Q  E H          Q     Q    Q   Q    E Q  E H
|-----------------|-----------------|---------------------|---------------|
|-----------------|-----------------|---------------------|---------------|
|-----------------|-----------------|---------------------|---------------|
|--------9-----9--|-----9----9------|---------9--------9--|---9----9------|
|--------7-----7--|-----7----9------|---------7--------7--|---7----9------|
|-----------------|--7-----7--------|---------------------|-7----7--------|
|
| E   Q.    H        H       Q  E E     Q     Q    H        H      Q  Q
|-----------------|-<7>------0----0-|-------<12>--<7>-----|--------0------|
|---<12>----------|-------------0---|-<12>----------------|-----------0---|
|-----------------|-----------------|---------------------|---------------|
|-----------------|-----------------|---------------------|---------------|
|-----------------|-----------------|---------------------|---------------|
|-----------------|-----------------|---------------------|---------------|


    Q  Q  Q  Q    E Q  E H      Q  Q  Q  Q    E Q  E H
||--------------|-------------|-------------|-------------|
||o-------------|-------------|-------------|-------------|
||--------------|-------------|-------------|-------------|
||-----9-----9--|---9----9----|----9-----9--|---9----9----|
||o----7-----7--|---7----9----|----7-----7--|---7----9----|
||--------------|-7----7------|-------------|-7----7------|


  Q  Q  Q  Q    E Q  E H      Q  Q  Q  Q    E Q  E H
|-------------|-------------|-------------|--------------||
|-------------|-------------|-------------|-------------o||
|-------------|-------------|-------------|--------------||
|----9-----9--|---9----9----|----9-----9--|---9----9-----||
|----7-----7--|---7----9----|----7-----7--|---7----9----o||
|-------------|-7----7------|-------------|-7----7-------||



Duration Legend
---------------
W - whole; H - half; Q - quarter; E - 8th; S - 16th; T - 32nd; X - 64th; a - acciaccatura
+ - note tied to previous; . - note dotted; .. - note double dotted
Uncapitalized letters represent notes that are staccato (1/2 duration)
Irregular groupings are notated above the duration line
Duration letters will always appear directly above the note/fret number it represents the
duration for.  Duration letters with no fret number below them represent rests.  Multi-
bar rests are notated in the form Wxn, where n is the number of bars to rest for.  Low
melody durations appear below the staff

Tablature Legend
----------------
 h   - hammer-on
 p   - pull-off
 b   - bend
 pb  - pre-bend
 r   - bend release (if no number after the r, then release immediately)
 /\  - slide into or out of (from/to "nowhere")
 s   - legato slide
 S   - shift slide
 - natural harmonic
[n]  - artificial harmonic
n(n) - tapped harmonic
 ~   - vibrato
 tr  - trill
 T   - tap
 TP  - trem. picking
 PM  - palm muting
\n/  - tremolo bar dip; n = amount to dip
 \n  - tremolo bar down
 n/  - tremolo bar up
/n\  - tremolo bar inverted dip
 =   - hold bend; also acts as connecting device for hammers/pulls
 <> - volume swell (louder/softer)
 x   - on rhythm slash represents muted slash
 o   - on rhythm slash represents single note slash

Misc Legend
-----------
 |  - bar
||  - double bar
||o - repeat start
o|| - repeat end
*|  - double bar (ending)
 :  - bar (freetime)
 $  - Segno
 &  - Coda
Tempo markers -  = BPM(8/16=s8/s16), where s8 = swing 8ths, s16 = swing 16ths


Tap to rate this tab
# A B C D E F G H I J K L M N O P Q R S T U V W X Y Z