Song name
# A B C D E F G H I J K L M N O P Q R S T U V W X Y Z

Aerosmith - Angel Solo tab

ANGEL (live) - AEROSMITH   intro + solo    
------------------------                  
Performed by Joe Perry in "A little south of sanity"
Tabbed by Albatros (otarie68@katamail.com)                                          
                                      

It might seem a useless thing to go and tab a live solo but I really 
love this song and I thought that some of you might find this stuff 
useful, just to learn some good old melodic rock licks or simply to 
get an idea of how Perry soloes in this great ballad.



INTRO
-----

The drums enter

e|---------10~--7--10~--10~-----------------------------------------|
b|---------------------------------------------------5------5p7-----|
g|------------------------------------4--7--4--7--------7--------7--|
d|------------------------------4--7--------------------------------|
a|--(5)*------------------------------------------------------------|
E|------------------------------------------------------------------|

*probably a bass note

e|------------------------------------------------------------------|
b|----5p7------7~------------5------7h10p7h10p7h10p7-10b(12)--------|
g|---------7-------------4------7-----------------------------------|
d|-----------------4--7---------------------------------------------|
a|------------------------------------------------------------------|
E|------------------------------------------------------------------|


e|-----7--5--7--5--------14~~---14b(16)r14b(16)r14b(16)r14----------|
b|--------------------7--------------------------------------15~----|
g|------------------------------------------------------------------|
d|------------------------------------------------------------------|
a|------------------------------------------------------------------|
E|------------------------------------------------------------------|


e|---10--7--------------------7-------------------------------------|
b|----------7--10--8--7---------------------------------------------|
g|------------------------9------7--9-----7-------------------7--7--|
d|-------------------------------------9-----9-------7--7--9--------|
a|----------------------------------------------7h9-----------------|
E|------------------------------------------------------------------|

                                 
e|-----------------------|----------|
b|----------8--7---------|----------|
g|----7--9----------9--7-|-7b(9)r7--|
d|-----------------------|----------|
a|-----------------------|----------|
E|-----------------------|----------|
                             5X







SOLO
----

e|------------------------------------------------------------------|
b|-----7h8p7--5h7p5-------------------------------------------------|
g|---7--------------7----4--7--4--4---------------------------------|
d|-7-----------------------------------7--5--4--4h5p4---------------|
a|----------------------------------------------------7-------------|
E|-------------------------------------------------------10\7/10~~--|

                                       hold bend
e|-------------------------------------------10~~-------------------|
b|-------------------------10b(12)r10-------------------------------|
g|------------------7/9\7--------------9b(11)--------9b(11)r9--7----|
d|------------7--9--------------------------------------------------|
a|------7--9--------------------------------------------------------|
E|--10--------------------------------------------------------------|


e|------------------------------------------------------------------|
b|------------------------------------------------------------------|
g|----------7--7------------------7--9-9b(11)r9p7--9--7h9p7---------|
d|---7--9-------------7--7--7--9-----------------------------9------|
a|----------------7h9-----------------------------------------------|
E|------------------------------------------------------------------|

                                               gradual bend                 
e|-----------------------------------------------------------------|
b|---------10----------------------------------8b>>>>(10)r8b(10)---|
g|---9b(11)----9b(11)r9--7--9--9p7-----7--7------------------------|
d|----------------------------------9------------------------------|
a|-----------------------------------------------------------------|
E|-----------------------------------------------------------------|


|-----------------------------------------------------| 
|For any comments, suggestions, corrections, feedback |
|otarie68@katamail.com                                |
|-----------------------------------------------------|
Tap to rate this tab
# A B C D E F G H I J K L M N O P Q R S T U V W X Y Z