Song name
# A B C D E F G H I J K L M N O P Q R S T U V W X Y Z

Aerosmith - Eat The Rich tab

EAT THE RICH TAB
Tuning: Standard

Intro

e ---------------------------------|
B ---------------------------------|
G ---------------------------------|
D -2--2----2--2----2--2----2--2----|
A -2--2----2--2----2--2----2--2----|
E -0--0----0--0----0--0----0--0----| x1

e ------------------------------------|
B ------------------------------------|
G ------------------------------------|
D -----5~~-----------------------2--2-|
A -5h7----5h7---------5----------2--2-|
E ------------3~~-5/7---7--5--3--0--0-| x4

Riff played during verse:
Try to hit every note

e------------------------------------------------------|
B------------------------------------------------------|
G------------------------------------------------------|
D------------------------------------------------------|
A---------------5p0------------------------------------|
E---5p0---7p0---------7p0--4p0--5p0--6p0--7p0----------|

Pre Chorus:
e --------------------------------------------------------|
B --------------------------------------------------------|
G --------------------------------------------------------|
D -2----4------5----7--7brp5----2----4------5----7--7b~~~-|
A -2----4------5----7--------7--2----4------5----7--------|
E -0----2------3----5-----------0----2------3----5--------| x1


e ---------------------------------------------------------|
B ---------------------------------------------------------|
G ---------------------------------------------------------|
D -2----4------5----7------9-9-9-9-9-9-9-9-9-9-9-9-9-9-9-9-|
A -2----4------5----7------9-9-9-9-9-9-9-9-9-9-9-9-9-9-9-9-|
E -0----2------3----5------7-7-7-7-7-7-7-7-7-7-7-7-7-7-7-7-| x1

Chorus

   Eat...       Theres only...
e -------------------------------|
B -----------------------------5-|
G -----------------------------4-|
D -9--7---------7--------------2-|
A -7--5---------5--9-------------|
E -------5br~------7--5--3--0----| x4

Sorry No Solo.

************************************

| /   slide up
| \   slide down
| h   hammer-on
| p   pull-off
| ~   vibrato
| +   harmonic
| x   Mute note
| b   Bend
| pb  Pre-bend
| br  Bend release
| pbr Pre-bend release
| brb Bend release bend

************************************
Tap to rate this tab
 
# A B C D E F G H I J K L M N O P Q R S T U V W X Y Z