Song name
# A B C D E F G H I J K L M N O P Q R S T U V W X Y Z

Aerosmith - Walk This Way tab

Okay, this is really fricken close so cut me some damn slack!

Symbols 
   h = hammer on.
   p = pull off.
   ()= bend to fret in brackets
   / = slide up.
   \ = slide down.
   ~ = vibrato
   []= tap fret in brackets with pick hand
   x = muted string



Intro (play twice)                                  then play this once
e------------------------|-----------------|        |---|
B------------------------|-----------------|        |-5-|
G------------------------|-----------------|        |-6-|
D------------------------|-----------------|        |-7-|
A-------7-------7--------|-------7-------7-|        |---|                                E-5h6h7---5h6h7---5-0----|-5h6h7---5h6h7---|        |---|



Rhythm Figure 1	          Rhythm Figure 2     Rhythm Figure 3
e------------------------| |--8--8--8--8-8-8--|--8--8--8---8--8--8--|
B------------------------| |--8--8--8--8-8-8--|-10-10-10--10-10-10--|
G------------------------| |--9--9--9--9-9-9--|-10-10-10--10-10-10--|
D--------7---10---8-7----| |-10-10-10---------|-10-10-10------------|
A-----10-------10--------| |-10-10-10---------|--8--8--8------------|
E--8(8)------------------| |- 8--8--8---------|---------------------|

**Now Play the Intro Again**


Solo 1
e--11(13)--8h11p8----8----8(10)--8-----------------------------------|
B-----------------11---11----------11-8------------------------------|
G---------------------------------------10--8-----8--10(12)-8(10)----|
D---------------------------------------------10------------------10-|
A--------------------------------------------------------------------|
E--------------------------------------------------------------------|

e-------------------------------------------------|
B-10(12)p8----8----------------------------11(13)-|
G----------10----10---10p8-10p8-11-10-8-----------|
D---------------------------------------10--------|
A-------------------------------------------------|
E-------------------------------------------------|

  
2nd Solo                      
e----------5-------------------------------------------------------|
B------5-8---8-5----------------------------5h8p5------------------|
G--5-5-----------7--7p5-7p5-7(9)-7(9)---5---------7p5----7---------|
D-------------------------------------4(5)------------7--5--7(9)-7-|
A------------------------------------------------------------------|
E------------------------------------------------------------------|

e---------------------------------------------------------------8-|	
B------------------------------5-8p7p5---5------------------------|
G---------5-8p7p5--8p7p5---7-----------7--7(9)7p5-7p5h7p5-7(9)7---|
D-------7------------------7--------------------------------------|
A-----------------------------------------------------------------|
E-8-8-8-----------------------------------------------------------|



This is played by the second guitar player over the solos
e----------------------|---------------------|
B----------------------|---------------------|
G----------------------|---------------------|
D----------------------|---------------------|
A--------7-------7-----|-------7-------7-----|
E--5h6h7---5h6h7---5-0-|-5h6h7---5h6h7---5~~-|

e-------------------------------------------------------------|
B----------------------------------------10~~---12(14)-12(15)-|
G-------------------------------------------------------------|
D--7(9)7--9(11)-9(11)--7(9)--9(11)-9(11)----------------------|
A-------------------------------------------------------------|
E-------------------------------------------------------------|
                     
e------------------------12-10----11(13)----11(13)-11(14)--|
B--12\--13(14)-13(15)----------12--------12----------------|
G----------------------------------------------------------|
D----------------------------------------------------------|
A----------------------------------------------------------|
E----------------------------------------------------------|
                                                        
e-------------------------------------------------------|
B--11p10p8-10(12)p8-------------------------------------|
G-------------------9---9-------------------------------|
D-------------------------------------------------------|
A-------------------------------------------------------|
E-------------------------------------------------------|
                  
e----------12-----------12------------------|
B-------12----15(17)~~-----15--12-----------|
G----12---------------------------14(16)----|
D-14-------------------------------------14-|
A-------------------------------------------|
E-------------------------------------------|

e-12-------------------------------------|
B----15-12--------12-12------------------|
G----------14(16)-------15p14p12-14---12-|
D-------------------------------(14)-----|
A----------------------------------------|
E----------------------------------------|

e-----------16(17)-17-15---12------15----15(17)-15(18)-17(19)p15--17-|
B--------12------------------------15b16--------------------------17-|
G-----12-------------------------------------------------------------|
D--14----------------------------------------------------------------|
A--------------------------------------------------------------------|
E--------------------------------------------------------------------|

e----------12---------------------------------|
B-------------15p12---------------------------|
G---------------------14p12-12-14(16)14p12----|
D--12/14-----------------------14---------14--|
A---------------------------------------------|
E---------------------------------------------|

e------------------------------------------------------|
B-----------------------------------------------14(15)-|
G-(12)------------------------------------------14(15)-|
D------14-12-------------------------------------------|
A------------14-12-------12(13)12p10----10----10----10-|
E------------------15-12-------------12----12----12----|

e------------------------------------------------0---------0---------0---|
B-------------------------------------------3(5)---0--3(5)---0--3(5)---0-|
G------------------------------------------------------------------------|
D--7(8)7-5----7(8)--7(8)p5----7(8)5---7(8)-------------------------------|
A----------7---------------7--------7------------------------------------|
E------------------------------------------------------------------------|


e------0---------0--------0----------0---------0-------------------|
B-3(5)---0--3(5)---0--3(5)---0--3(5)---0--3(5)---0--3(5)-0---------|
G----------------------------------------------------------2(4)2-0-|
D------------------------------------------------------------------|
A------------------------------------------------------------------|
E------------------------------------------------------------------|

    					                                          e---------------------------------------------------------------------------|
B-------------------------------------------------------12------12-12-12-12-|
G-------------------------------------------------4/12-----12~~-------------|
D--7(8)-5---7(8)-5--------------------------------4/12----------------------|
A---------7--------7---7p5h7-5----------5--7--------------------------------|
E------------------------------7-5-0--0-------------------------------------|
Tap to rate this tab
 
# A B C D E F G H I J K L M N O P Q R S T U V W X Y Z