Song name
# A B C D E F G H I J K L M N O P Q R S T U V W X Y Z

Aerosmith - Kings & Queens tab

Aerosmith – draw the line - Kings and Queens tab
It includes solo. tuning is half a step down

             Intro
B|------------------------------------------------------|
E|------------------------------------------------------|
G|------6-7---------7-6--9-11~----6-7-------------------|
D|--4~--6-7---4-5---7-6--9-11~----6-7--4-5/7/9/11-------|
A|--4~--4-5---4-5---5-4--7-9-~----4-5--4-5/7/9/11\/
E|------------------------------------------------------|
B|--------------- (go-back-to-verses) ----12~-10p9------|
G|---6-x-16---------------------------------------------|
D|---6--------------------------------------------------|
A|---4--------------------------------------------------|
E|------------------------------------------------------|
 
E|------------------------------------------------------|
B|------------------------------------------------------|
G|--6------6-4-2----------------------------------------|
D|--4-x-13-6-4-2----------------------------------------|
A|--4------4-2-0----------------------------------------|
E|--------------- (intro) ------------------------------|
Faster. Do 2’S but second time slow down towards the end…
E|------------------------------------------------------|
B|------------------------------------------------------|
G|-11---------------------------------------------------|
D|-11-x-16-9------6-----7-----11------------------------|
A|-9-------9-x-16-6-x-8-7-x-8-11-x-16-> SOLO :

E|-(14)-------------------------------------------------|
B|----------12b^^r12-10---------------------------------|
G|-11-13-14-------------11~--/14-13~-13br11-10-11/13-14-|
D|------------------------------------------------------|
A|------------------------------------------------------|
E|------------------------------------------------------|

E|------------------------------------------------------|
B|------------------------------------------/17b^^~--14h|
G|-13-11-10h11-/13-14-13-11-10p11~-14p11~---------------|
D|------------------------------------------------------|
A|------------------------------------------------------|
E|------------------------------------------------------|
 
E|------------------------------------------------------|
B|17p14----14-----------17------------------------------|
G|------16----16br14-16b—-16br14----14-16b^^~~-16br14---|
D|-------------------------------16-------------------16|
A|------------------------------------------------------|
E|------------------------------------------------------|

E|------------------------------------------------------|
B|-------------------------------17b^^^-14h17p14----14--|
G|-14h16^-(18)-16br14----14----------------------16-----|
D|--------------------16----16~~------------------------|
A|------------------------------------------------------|
E|------------------------------------------------------|

E|------------------------------------------------------|
B|------------------------------------------------------|
G|-16p14h16p14----------------------------------------14|
D|-------------16p14----------------------------14h16---|
A|-------------------16p14----------------14h16---------|
E|-------------------------16p14\12h14/16---------------|

E|------------------------------------------------------|
B|-14-----17----17-----17-17-17p14h17-17b^^^------------|
G|----16b^--16b^---16b^---------------------------------|
D|------------------------------------------------------|
A|------------------------------------------------------|
E|------------------------------------------------------|


Fills after the solo…

E|------------------------------------------------------|
B|--(9)----(9)----------(9)---------(9)-----------------|
G|--(9)----(9)----------(9)---------(9)-----------------|
D|------------------------------------------------------|
A|------------------------------------------------------|
E|------------------------------------------------------|


E|------------------------------------------------------|
B|------------------------------------------------------|
G|------------------------------------------------------|
D|------------------------------------------------------|
A|-------x-x---x-x----------------x-x---x-x-------------|
E|-------x-x---x-x----------------x-x---x-x-------------|


E|------------------------------------------------------|
B|------------------------------------------------------|
G|------------------------------------------------------|
D|------------------------------------------------------|
A|----///////////////////////////-----------------------|
E|----///////////////////////////-----------------------|


Long ago in days untold
Were ruled by lords of greed
Maidens fair, with gold they dared
To bare their wombs that bleed
Kings And Queens and guillotines
Taking lives denied
Starch and parchments laid the laws
When bishops took the ride
Only to deceive
Oh I know I
Lived this life before
Somehow I know now
Truths I must be sure
Tossin' turnin', nightmares brunin'
Dreams of swords in hand
Sailing ships, the Viking spits
The blood of father's land
Only to deceive 
Living times of knights and mares
Raising swords for maidens fair
Sneer at death, fear only loss of pride
Living other centuries
Deja v?or what you please
Follows true to all who do or die
Screams of no reply
They died
Screams of no reply
And died
Lordy, Lordy, they died

Tabbed by CHRIS NJAU 
If any mistakes found, email me at chris_njau1@hotmail.com
Tap to rate this tab
 
# A B C D E F G H I J K L M N O P Q R S T U V W X Y Z