Song name
# A B C D E F G H I J K L M N O P Q R S T U V W X Y Z

Aerosmith - Love In An Elevator tab

intro
|--------------------------|--------------------------|
|--------------------------|--------------------------|
|--------------------------|--------------------------|
|--------------------------|--------------------------|x2
|--------------------------|--------------------------|
|--9--7--8--7--6--7--6--5--|--9--7--8--7--6--7--6--5--|

|-----------------------|--------------------------|
|-----------------------|--------------------------|
|-----------------------|--------------------------|
|--9--------------------|-11-----------------------|
|--7--7--7--7--7--7--7--|--9--9--9--9--9--9--9--9--|
|-----------------------|--------------------------|

chorus
|-----------------------|-----------------------|
|-----------------------|-----------------------|
|-----------------------|-----------------------|
|-----------------------|-----------------------|x2
|--5--5--5-----7-----9--|--5--5--5-----7-----9--|
|--3--4--3-----5-----7--|--3--4--3-----5-----7--|

|-----------------------|-----------------------|
|-----------------------|-----------------------|
|-----------------------|-----------------------|
|-----------------------|-----------------------|x2
|--7--7--7-----9----11--|--7--7--7-----9----11--|
|--5--6--5-----7-----9--|--5--6--5-----7-----9--|

verse
|----------------------|----------------------|
|----------------------|----------------------|
|----------------------|----------------------|
|----------------------|----------------------|x2
|--9-------9-----7--5--|--9-------9-----7--5--|
|--7-------7-----5--3--|--7-------7-----5--3--|

	-chorus
	-verse
solo
|--------------------------------------------------------|
|--------------------------------------------------------|
|--------------------------------------------------------|
|--------------------------------------------------------|
|--12--14--15---13--12--13--11---12--12--12--12--13--14--|
|--------------------------------------------------------|

|-------------------------------------------------------------------|
|-------------------------------------------------------------------|
|-------------------------------------------------------------------|
|-------------------------------------------------------------------|
|--12--12--12--12--13--14---12--12--12--11--10--12--10--12--10--11--|
|-------------------------------------------------------------------|

|----------------------------------------------------------|
|----------------------------------------------------------|
|----------------------------------------------------------|
|----------------------------------------------------------|
|--12--12--13--13--14--14--15--15--16--16--17--17--18--18--|
|----------------------------------------------------------|

|----------------------------------------------------------|
|----------------------------------------------------------|
|----------------------------------------------------------|
|----------------------------------------------------------|
|----------------------------------------------------------|
|--18--18--17--17--16--16--15--15--14--14--13--13--12--12--|

|------------------------------------------------------------------|
|------------------------------------------------------------------|
|------------------------------------------------------------------|
|------------------------------------------------------------------|
|--12--12--13---12--12--13---12--12--13---12--12---13--11--11--12--|
|------------------------------------------------------------------|

|-------------------------------------------------------------------------|
|-------------------------------------------------------------------------|
|-------------------------------------------------------------------------|
|------------------------------------------------------15b16b17b18b-------|
|--11--11--12---11--11--12---11--11--12---11--11--12---15b16b17b18b-------|
|-------------------------------------------------------------------------|

|----------------------------------------------------------------------|
|----------------------------------------------------------------------|
|----------------------------------------------------------------------|
|--18--19--18--17--18--18--18--18--17--17--17--16--16--16--17--15--15--|
|--18--19--18--17--18--------------------------------------------------|
|----------------------------------------------------------------------|

|----------------------------------------------------------------------|
|----------------------------------------------------------------------|
|----------------------------------------------------------------------|
|--16--16--17--17b--1617--1617--1617--17--17--16--16--15---------------|
|----------------------------------------17--17--16--16--15--12--12----|
|------------------------------------------------------------12--12----|

|-------------------------------------------------------------------------------|
|-------------------------------------------------------------------------------|
|-------------------------------------------------------------------------------|
|-------------------------------------------------------------------------------|
|--13--14b--12--12--13--14b--12--12--13--14b--12--12--13--14b--12--12--13--14b--|
|--13-------12--12--13-------12--12--13-------12--12--13-------12--12--13-------|

|--------------------------------------------------------------------------------|
|--------------------------------------------------------------------------------|
|--------------------------------------------------------------------------------|
|--------------------------------------------------------------------------------|
|---------------------------15----15--1416--15----15--1416--15----15--1416-------|
|--13--14--13--14--13--14---15----15--1416--15----15--1416--15----15--1416-------|

|---------------------------------------------------------------------------|
|---------------------------------------------------------------------------|
|---------------------------------------------------------------------------|
|---------------------------------------------------------------------------|
|--15----15--1416-----------------------------------------------------------|
|--15----15--1416----15--1312---1312---1312---11--12--11--12--11--12--------|

|-----------------------------------------------------------------|
|-----------------------------------------------------------------|
|-----------------------------------------------------------------|
|-----------------------------------------------------------------|
|--12--12--12--12--1112--1112--1112--12--12--12--12--12--13-------|
|-----------------------------------------------------------------|
Tap to rate this tab
 
# A B C D E F G H I J K L M N O P Q R S T U V W X Y Z