Song name
# A B C D E F G H I J K L M N O P Q R S T U V W X Y Z

Aerosmith - Love Me Two Times chords

Highlighted       Show chord diagrams
Love Me Two Times
From "Air America" movie soundtrack (transcribed by the unplugged version)
This was tricky, and I also don't have the solo. Keep in mind, this song doesn't 
have verses or chorus either per say, but a verse with a repeating suffix.

Chords: In order of use,
E         A         B(A-bar)  A5        G         C         D
|--0--|   |-----|   |-----|   |-----|   |--3--|   |-(3)-|   |-----|
|--2--|   |--0--|   |--2--|   |--0--|   |--2--|   |--3--|   |-----|
|--2--|   |--2--|   |--4--|   |--2--|   |--0--|   |--2--|   |--0--|
|--1--|   |--2--|   |--4--|   |-(2)-|   |--0--|   |--0--|   |--2--|
|--0--|   |--2--|   |--4--|   |-----|   |3-or-0|  |--1--|   |--3--|
|--0--|   |--0--|   |--2--|   |-----|   |--3--|   |-(3)-|   |--2--|

Intro:
|----------------------------------|
|----------------------------------|
|----------------------------------|
|--------------------------5~-5~---|
|-----5---7----5-7-----------------|
|---7---7----7------0-0------------|

Verse/Chorus:
E 
Love me two time baby
Love me twice today

A 
Love me two times girl
                E 
I'm goin' away
                              B 
Love me two times girl
Once for tomorrow
                          A5 
Once just for today

G                   D
Love me two times
 C      D    E
I'm goin' away 

Remianing Lyrics:
Love me one time
I could not speak
Love me one time girl
You know my knees got weak
Love me two times girl
Love me all through the week
Love me two times
I'm goin' away
Love me two times
I'm goin' away

Love me one time
Could not speak
Love me one time, baby
You know my knees got weak
Love me two times girl
Love me all trough the week
Love me two times
I'm goin' away

Love me two times baby
Love me twice today
Love me two times baby
Well, I'm goin' away
Love me two times girl
Once for tomorrow
Once just for today

Love me two times
I'm goin' away
(Repeat)
Tap to rate this tab
 
# A B C D E F G H I J K L M N O P Q R S T U V W X Y Z