Song name
# A B C D E F G H I J K L M N O P Q R S T U V W X Y Z

Aerosmith - Make It tab

-------------------------------------------------------------------------------
                             Make It-Aerosmith
-------------------------------------------------------------------------------
Tabbed by:SolidusArmor
E-mail:

Tuning: Standard EADGBe

Post any corrections in the comment section!.



e|---------------------------------------------------------------------------|
B|---------------------------------------------------------------------------|
G|--7--7--7--7-----10--10--10--10-----333--333--333--------------------------|X3
D|--7--7--7--7-----10--10--10--10-----333--333--333--------------------------|
A|--5--5--5--5-----8---8---8---8------111--111--111--------------------------|
E|---------------------------------------------------------------------------|


e|--------------|-------------|---------------------------|
B|--------------|-------------|-------------------------X4|
G|------------X4|-----------X3|-10--9--7------------------|
D|--------------|-------------|-10--9--7-Let Ring---------|
A|---5--5--7----|---7--7--9---|-8---7--5------------------|
E|---3--3-------|---5--5------|---------------------------|


e|--------------------------------|-------------------------------------------|
B|--------------------------------|-------------------------------------------|
G|--------------------------------|-------------------------------------------|
D|-3-3---5---6x---8-8-----10--11--|-3-3---5---6x---8-8---10--11---------------|
A|-3-3---5---6x---8-8-----10--11--|-3-3---5---6x---8-8---10--11---------------|
E|-1-1---3---4x/--6-6-----8---9---|-1-1---3---4x/--6-6---8---9----------------|

----------------------------------------|
----------------------------------------|
----------------------------------------|
-3-3--5---6x----8-8---10--11---5--7--8--|
-3-3--5---6x----8-8---10--11---5--7--8--|
-1-1--3---4x/---6-6---8---9----3/-5/-6--|



I'm not sure on the riffs



                     Riff 1                            Riff 2
e|---------------------------------------|------------------------------------|
B|---------5-6----7b6----5---------------|-----------------5h6----------------|
G|----6b--------------------7---5--------|----6b--5---7-----------------------|
D|----------------------------------7----|------------------------------------|
A|---------------------------------------|------------------------------------|
E|---------------------------------------|------------------------------------|

               Riff 1 again                           Riff 3
e|---------------------------------------|------------------------------------|
B|---------5-6------7b6---5--------------|------------------------------------|
G|----6b---------------------7---5-------|------9b9r9/---7/-----2-------------|
D|----------------------------------7----|------------------------------------|
A|---------------------------------------|------------------------------------|
E|---------------------------------------|------------------------------------|





-------------------------------------------------------------|
-------------------------------------------------------------|
-----7--7--7--7-----10--10--10--10-----3--3--3--3------------|
-----7--7--7--7-----10--10--10--10-----3--3--3--3------------|
-----5--5--5--5-----8---8---8---8------1--1--1--1------------|
-------------------------------------------------------------|



************************************

| /   slide up
| \   slide down
| h   hammer-on
| p   pull-off
| ~   vibrato
| +   harmonic
| x   Mute note
| b   Bend
| pb  Pre-bend
| br  Bend release
| pbr Pre-bend release
| brb Bend release bend

************************************
Tap to rate this tab
 
# A B C D E F G H I J K L M N O P Q R S T U V W X Y Z