Song name
# A B C D E F G H I J K L M N O P Q R S T U V W X Y Z

Aerosmith - Spaced tab

Tuning: Standard


Intro:

e|---------|
B|---------|
G|-8----7--|
D|-8-6--7-5|
A|-6-6--5-5|
E|---4----3|

Verse:

e|----------------|
B|----------------|
G|------7----10--9|
D|-7-5--7-8--10--9|
A|-7-5--5-8--8---7|
E|-5-3----6-------|x3

Bridge:

e|----------------------|
B|----------------------|
G|-9---2----10-7-12-7---|
D|-9---2----10-7-12-7-5-|
A|-7---0----8--5-10-5-5-|
E|--------------------3-|

Guitar 1:

e|----------------------------|
B|----------------------------|
G|----------------------------|
D|-0/2-x-x-2/5-x-x-5/8-x-x-8\-|
A|-0---x-x-0---x-x-0---x-x----|
E|----------------------------|x3

Guitar 2:

e|----------------------------------|
B|----------------------------------|
G|---10b---12p10p8-12p10p8-10-----8b|
D|----------------------------11----|
A|----------------------------------|
E|3~--------------------------------|


e|-----------------------------------------------------------|
B|-----------------------------------------------------------|
G|-----------------------------------------------------------|
D|5---0/2-x-x-2/5-x-x-5/8-x-x-8\---0/2-x-x-2/5-x-x-5/8-x-x-8\|
A|5---0---x-x-0---x-x-0---x-x------0---x-x-0---x-x-0---x-x---|
E|3----------------------------------------------------------|x2

e|-------------------|
B|-------------------|
G|-----10---8---6----|
D|-5---10-8-8-6-6-5--|
A|-5---8--8-6-6-4-5--|
E|-3------6---4---3--|

e|-----------------|
B|-----------------|
G|-2---2---2-2-2-2-|
D|-0-5-0-4-0-0-0-0-|
A|-----------------|
E|-----------------|x7

e|------------------------------------------------|
B|------------------------------------------------|
G|----------5-5-2-2---------------------7----10-9-|
D|7777777-----------5-5-2-2---------5-8-7-8--10-9-|
A|7777777-------------------5-2-----5-8-5-8--8--7-|
E|5555555-----------------------5-3-3-6---6-------|


************************************

| /   slide up
| \   slide down
| h   hammer-on
| p   pull-off
| ~   vibrato
| +   harmonic
| x   Mute note
| b   Bend
| pb  Pre-bend
| br  Bend release
| pbr Pre-bend release
| brb Bend release bend

************************************
Tap to rate this tab
# A B C D E F G H I J K L M N O P Q R S T U V W X Y Z