Song name
# A B C D E F G H I J K L M N O P Q R S T U V W X Y Z

Aerosmith - Get It Up tab

GET IT UP

verse:
e-------------5---------------5-|---------------------------------|
B----------/5--------------/5---|---------------------------------|
G---7\5-------------------------|---------------------------------|
D---7\5-------------------------|------------------5-5-5-5--5-7---|
A-------0---------0--5\3-0------|-0--5-5-5--3-3-0-----------------|
E-------------------------------|---------------------------------|

chorus:
e-----------------------------------------------------------------|
B-----------------------------------------------------------------|
G-----------------------------------------------------------------|
D--------------------5-6-7----------------------------------------|
A---4---5-6-7---------------------0---5--3---0--------------------|
E-----------------------------------------------------------------|
Tap to rate this tab
# A B C D E F G H I J K L M N O P Q R S T U V W X Y Z