Song name
# A B C D E F G H I J K L M N O P Q R S T U V W X Y Z

Aertze - Die Banane tab

Die Banane
==========
(M: Felsenheimer/T: Felsenheimer/Gonzales)

Note: Guitar 1 has heavy distortion and Guitar 2 is acoustic.

Intro:
2x:
   e       C         e       D D4 D D9
1:-----------------|---------2-3--2-0-|
2:---0---------1---|---0-----3-3--3-3-|
3:-----0-----0---0-|-----0---2-2--2-2-|
4:-----------------|-------0-0-0--0-0-|
5:-------0-3-------|------------------|
6:-0---------------|-0----------------|

1.Strophe:
e             C              e
  Wir kannten uns noch nicht lange,
     C            e            C           e   D D4 D D9
Drum war mir auch bange - vorm Treffen mit ihr.
e             C           e
  Sie war ein traumhaftes Mädchen,
     C        e              C         e       D D4 D D9
Kein Doofie & Blödchen - wir gingen spazier'n.
e           C         e          C          e         C         e    D D4 D D9
  Ein Essen bei Kerzenschein - Romantik und Wein - so sollte es sein.

e              C           e
  Der Wein war nicht zu verachten,
    C             e              C            e     D D4 D D9
Wir scherzten und lachten - mein Charme war erprobt.
e           C            e
  Das Essen war wirklich klasse,
    C            e        C          e    D D4 D D9
Zum Abschluß 'ne Tasse Kaffee, etwas Obst.
e       C       e    D D4 D D9  e(Fill1) C            H7
  Unser Glück gedieh'     -         doch dann schälte sie...


Fill1:
   e        C        H7
1:-----------------|-------------2------2-|
2:-----------------|---------0------0-----|
3:-------0------0--|------2----2------2---|
4:-2---2------2----|---1------------------|
5:---2------3------|-2--------------------|
6:-----------------|----------------------|


Refrain:
G    f# e           h
Schälte sie - 'ne Banane,
       D                       A
Mein Gehirn wurde plötzlich zu Sahne.
    A G   f#  e          h
Oh, Baby, sie aß - die Banane,
        D                    A         A  G  f# e  C    e  D D4 D D9   e(Fill2)  C  e  D D4 D D9
Statt Romantik gabs nur noch profane Gefühle in mi-hi-hir.


Fill2:
1:-f12-|
2:-f12-|
3:-f12-|
4:-----|
5:-----|
6:-----|


Lead part in refrain:

   G f# e     h               D           A         A G f# e
1:---------0-|--0-----0--------|-0-----0----|-0---------------2-|
2:---------0-|------3---3---3--|-----3------|-----3-----------2-|
3:---------0-|----4-------4----|---4-----4--|---4-------------2-|
4:-5-4-2---2-|-----------------|------------|-------7-5-4-2---2-|
5:-5-4-2---2-|-----------------|------------|-------7-5-4-2---2-|
6:-3-2-0---0-|-----------------|------------|-------5-3-2-0---0-|
  h               D            A        A G f# e
1:--0-----0--------|-0-----0----|-0--------------|
2:------3---3---3--|-----3------|-----3----------|
3:----4-------4----|---4-----4--|---4------------|
4:-----------------|------------|-------7-5-4-2--|
5:-----------------|------------|-------7-5-4-2--|
6:-----------------|------------|-------5-3-2-0--|
   e       C         e       D D4 D D9  e       C         e       D D4 D D9
1:---0-------0-----|---0-----2-3--2-0-|---0-------0-----|---0-----2-3--2-0-|
2:-----0-------1---|-----0---3-3--3-3-|-----0-------1---|-----0---3-3--3-3-|
3:-------0-------0-|-------0-2-2--2-2-|-------0-------0-|-------0-2-2--2-2-|
4:-----------------|---------0-0--0-0-|-----------------|---------0-0--0-0-|
5:---------3-------|------------------|---------3-------|------------------|
6:-0---------------|-0----------------|-0---------------|-0----------------|


2.Strophe:
e         C               e
  Meine Beherrschung ging flöten,
         C       e           C                e    D D4 D D9
Ich fing an zu erröten - die Stirn war schweißnass.
e            C         e
  Sie aß langsam und bedächtig,
    C                e               C         e    D D4 D D9
Der Anblick war prächtig - scheinbar hatte sie Spaß.
e      C        e                C       e               C     f#(-->Interlude)
  Also habe ich schnell - mehr Bananen bestellt - alle Bananen der Welt.


Interlude:
f#  D  f#  E
f#  D  f#  E
f#  D  f#  E
f#  D  C#4 C#


3.Strophe:
e                  C            e
  Ich sprach jetzt nicht mehr geschwollen
              C                              e
Ey, Alter ey, geh'se auf die Weiber holn, verstehste),
       C             e     D D4 D D9
Geifer troff mir vom Kinn.
    e      C                e         C                e          C           e   D D4 D D9
Angewidert ließ sie mich sitzen - ich fing an zu schwitzen, sabberte vor mich hin.
e        C           e   D D4 D D9      e(Fill1)  C              H7
  Wieder sah ich sie nie     -     doch in meinen Träumen schält sie...


Refrain (Mit Begleitung):
G  f#     e           h
Da schält sie - 'ne Banane,
        D                          A
Mein Gehirn, das wird plötzlich zu Sahne.
A     G  f#  e           h
Yeah, Ba-by, iss - die Banane,
        D                      A      A  G  f# e     e7
Statt Romantik regier'n nur profane Gefühle in mir.


Lead part in refrain:

   G f# e     h               D           A         A G f# e
1:---------0-|--0-----0--------|-0-----0----|-0---------------2-|
2:---------0-|------3---3---3--|-----3------|-----3-----------2-|
3:---------0-|----4-------4----|---4-----4--|---4-------------2-|
4:-5-4-2---2-|-----------------|------------|-------7-5-4-2---2-|
5:-5-4-2---2-|-----------------|------------|-------7-5-4-2---2-|
6:-3-2-0---0-|-----------------|------------|-------5-3-2-0---0-|
  h               D            A        A G f# e    e7
1:--0-----0--------|-0-----0----|-0--------------|--7-7-7-7-7--|
2:------3---3---3--|-----3------|-----3----------|--8-8-8-8-8--|
3:----4-------4----|---4-----4--|---4------------|--7-7-7-7-7--|
4:-----------------|------------|-------7-5-4-2--|--9-9-9-9-9--|
5:-----------------|------------|-------7-5-4-2--|--7-7-7-7-7--|
6:-----------------|------------|-------5-3-2-0--|-------------|


Outro-Refrain:
G   f# e          h
Frauen es - sen Bananen,
     D                     A
Ohne was von den Folgen zu ahnen.
G   f#  e                    h
Für sie ist's nur Nahrungsaufnahme,
        D                    A
Für den Herrn 'ne Fellatio Reklame.

A*  G f#  e         h
Oh, Baby, iss die Banane,
       D                   A
Mein Gehirn besteht eh nur Sahne,
A     G f#  e         h
Yeah, Baby, iss die Banane
          D                            A    A  G    f# e   h   D   A
Scheiss Romantik, hier herrscht nur profane Wollust in mir...
A G f# e       h    D   A
         Die Banane
A G f# e       h    D   A
         Die Banane


Outro:
5x:
   A G f# e     h               D           A
1:-----------0-|--0-----0--------|-0-----0----|-0-----|
2:-----------0-|------3---3---3--|-----3------|-----3-|
3:-----------0-|----4-------4----|---4-----4--|---4---|
4:-7-5-4-2---2-|-----------------|------------|-------|
5:-7-5-4-2---2-|-----------------|------------|-------|
6:-5-3-2-0---0-|-----------------|------------|-------|
Tap to rate this tab
# A B C D E F G H I J K L M N O P Q R S T U V W X Y Z