Song name
# A B C D E F G H I J K L M N O P Q R S T U V W X Y Z

Aesop Rock - Save Yourself tab

Save Yourself by Aesop Rock

Riff A - Play 3 Times

e----------------------------------|
B---------------6-7-8-7-8----------|
G-5-4-5-7-8-7-8--------------------|
D----------------------------------|
A----------------------------------|
E----------------------------------|

Riff B - Play once after Riff A
e-----8-6--------------------------|
B--8------9-8-7-------------8------|
G---------------8-5-7---8-7--------|
D----------------------------------|
A----------------------------------|
E----------------------------------|

Repeat.
Tap to rate this tab
# A B C D E F G H I J K L M N O P Q R S T U V W X Y Z