Song name
# A B C D E F G H I J K L M N O P Q R S T U V W X Y Z

Aesop Rock - Labor tab

-------------------------------------------------------------------------------
			     Aesop Rock - Labor
-------------------------------------------------------------------------------
Tabbed by: Elijah Richardson
Email: SpicyJones97@yahoo.com

Tuning: Standard

e|---------------------------------------------------------------------------|
B|---------------------------------------------------------------------------|
G|---------------------------------------------------------------------------|
D|----------------------------------9--------6-------------------------------|
A|---------------------------------------------------4h54h54h54h5p4----------|
E|4-----4-----4-----2-----5---4---------------------------------------5---4--| do this 3 times then

e|-----------------------------------------------------------|
B|-----------------------------------------------------------|
G|-----------------------------------------------------------|
D|----------------9-----6------------------------------------|
A|-----------------------------4h54h54h54h5p4----------------|
E|-5------2----------------------------------------2------4--|

There ya go..pretty much 100% perfect. Email me if you think anything should be changed


| /  slide up
| \  slide down
| h  hammer-on
| p  pull-off
| ~  vibrato
| +  harmonic
| x  Mute note
===============================================================================
Tap to rate this tab
# A B C D E F G H I J K L M N O P Q R S T U V W X Y Z