Song name
# A B C D E F G H I J K L M N O P Q R S T U V W X Y Z

Aeternam - Ouroboros tab

http://www.metal-archives.com/band.php?id=3540285080

I only learned the intro because I think it's the coolest
part of the song.

h = hammer on
p = pull off

D:---------------------------------------------------------|
A:---------------------------------------------------------|
F:---------------------------------------------------------|
C:-------------------------------------------6h7p6---------|
G:-------7-----8-----4-5-7-8-----7-----8-----------8-------|
D:-0-0-0---0-0---0-0---------0-0---0-0---0-0---------------|

D:---------------------------------------------------------|
A:---------------------------------------------------------|
F:---------------------------------------------------------|
C:---------------------------------------------------------|
G:-------7-----8-----4-5-7-8-----7-----8-----10------------|
D:-0-0-0---0-0---0-0---------0-0---0-0---0-0---------------|


D:---------------------------------------------------------|
A:---------------------------------------------------------|
F:---------------------------------------------------------|
C:-------------------------------------------6h7p6---------|
G:-------7-----8-----4-5-7-8-----7-----8-----------8-------|
D:-0-0-0---0-0---0-0---------0-0---0-0---0-0---------------|

D:---------------------------------------------------------|
A:---------------------------------------------------------|
F:---------------------------------------------------------|
C:--------------------------------------------8-----7------|
G:-------7-----8-----4-5-7-8-----7-----8-------------------|
D:-0-0-0---0-0---0-0---------0-0---0-0---0-0----0-0--------|


D:---------------------------------------------------------|
A:---------------------------------------------------------|
F:---------------------------------------------------------|
C:-------------------------------------------6h7p6---------|
G:-------7-----8-----4-5-7-8-----7-----8-----------8-------|
D:-0-0-0---0-0---0-0---------0-0---0-0---0-0---------------|

D:---------------------------------------------------------|
A:---------------------------------------------------------|
F:---------------------------------------------------------|
C:---------------------------------------------------------|
G:-------7-----8-----4-5-7-8-----7-----8-----10------------|
D:-0-0-0---0-0---0-0---------0-0---0-0---0-0---------------|


D:---------------------------------------------------------|
A:---------------------------------------------------------|
F:---------------------------------------------------------|
C:-------------------------------------------6h7p6---------|
G:-------7-----8-----4-5-7-8-----7-----8-----------8-------|
D:-0-0-0---0-0---0-0---------0-0---0-0---0-0---------------|

D:-------------------------------------------------------------------------|
A:-------------------------------------------------------------------------|
F:-------------------------------------------------------------------------|
C:----------------------------------------------------------------8-----7--|
G:-------7-----8-----4-5-7-8-----7-----11-----10-----8-----7---------------|
D:-0-0-0---0-0---0-0---------0-0---0-0----0-0----0-0---0-0---0-0----0-0----|
Tap to rate this tab
 
# A B C D E F G H I J K L M N O P Q R S T U V W X Y Z