Aeternam - Iteru tab

Song: Iteru (Track 6)
Band: Aeternam
Album: Disciples of the Unseen
Note: Drop C Tuning. If you do not listen to the song, this will seem complicated.

Guitar 1: Riff 1: 0:14-1:05, 1:09-1:27, 1:30-1:48, 1:51-2:15

| ---------------------------------|---------------------------------|
| ---------------------------------|---------------------------------|
| ---------------------------------|---------------------------------|
| ---------------------------------|-------------5-4h5p4-------------|
| ---5--5--5---6-5h6p5-3---5-6-----|----5--5--5---------------5-6-3--|
| -0-------------------------------|-0-------------------------------|

Guitar 2 Fill: 0:40-0:43

| --------------------------------------------------------|
| --------------------------------------------------------|
| -----------------------------11-12-11h12p11-------------|
| -12p10h12-12p10h12-13------------------------13-10-13-12|
| --------------------------------------------------------|
| --------------------------------------------------------|

You must listen carefully for this next part, as it is played over top of guitar 1 riff 
1, at the same rhythm.
Guitar 2: Riff 1: 0:43-1:01

| ---------------------------------|---------------------------------|
| ---------------------------------|---------------------------------|
| ---------------------------------|---------------------------------|
| ----4-4-4-5-4h5p4-----4----5-----|----4-4-4--8-7h8p7-5---7--4------|
| -------------------6-------------|---------------------------------|
| -0-------------------------------|-0-------------------------------|

Guitar 1 Fill1: 1:05-1:08, 1:28-1:30, 1:49-1:51

| ---------------------------------|
| ---------------------------------|
| ---------------------------------|
| ---------------------------------|
| ------5-5--5-----5-3-------------|
| -0-5---------0-5-----------------|





For the outro, the Chords at the top represent Guitar 2, but the tab will represent 
Guitar one. The chord diagrams is at the bottom. Remember its in drop C, so chords are a 
little different:)


 Bbm                                C
| ---------------------------------|---------------------------------|
| ---------------------------------|---------------------------------|
| ---------------------------------|---------------------------------|
| -5-5-5-8p7h8p7---5--7------------|--7-7-7-10p8h10p8-7-8------------|
| ---------------------------------|---------------------------------|
| ---------------------------------|---------------------------------|
 Db                                 C
| ---------------------------------|---------------------------------|
| ---------------------------------|---------------------------------|
| ---------------------------------|---------------------------------|
| 12---10---8---7---5---4----------|----------4-5-4h5p4--------------|
| ---------------------------------|--3--5--6-------------5----------|
| ---------------------------------|---------------------------------|

 Bbm                                C
| ---------------------------------|---------------------------------|
| ---------------------------------|---------------------------------|
| ---------------------------------|---------------------------------|
| -5-5-5-8p7h8p7---5--7------------|--7-7-7-10p8h10p8-7-8------------|
| ---------------------------------|---------------------------------|
| ---------------------------------|---------------------------------|
 Db                                 C
| ---------------------------------|---------------------------------|
| ---------------------------------|---------------------------------|
| ---------------------------------|---------------------------------|
| 12---10---8---7---5---4----------|----------4-5-4h5p4--------------|
| ---------------------------------|--3--5--6-------------5----------|
| ---------------------------------|---------------------------------|


 Gm
| ---------------------------------|
| 8--------------------------------|
| 7--------------------------------|
| 5--------------------------------|
| ---------------------------------|
| ---------------------------------|







Chords: Remember its in Drop C, so play it on the appropriate fret. Also they sound 
better as bar chords, but it doesnt really matter.

 Bbm :                                     C
| 3--------------------------------|5--------------------------------|
| 4--------------------------------|7--------------------------------|
| 5--------------------------------|7--------------------------------|
| 5--------------------------------|7--------------------------------|
| 3--------------------------------|5--------------------------------|
| x--------------------------------|x--------------------------------|
 Db                                          Gm
| 6--------------------------------|3--------------------------------|
| 8--------------------------------|3--------------------------------|
| 8--------------------------------|3--------------------------------|
| 8--------------------------------|5--------------------------------|
| 6--------------------------------|5--------------------------------|
| x--------------------------------|5--------------------------------|


Lyrics note: The Lyrics in most of the song are not in English and I dont believe they 
are French either but if I figure them out Ill add them in. However the lyrics at the end 
are in English and here they are:

Another day is dawning
And the eastern light is emerging
From a dark shade of clouds
While the firstborn son of Ra
Carried by the oriental winds
Is reaching the final gleam of Shemsu

Well thats it, enjoy:) Any questions, contact cam.schwab94@gmail.com!
Tap to rate this tab
 
# A B C D E F G H I J K L M N O P Q R S T U V W X Y Z