Song name
# A B C D E F G H I J K L M N O P Q R S T U V W X Y Z

Afi - Take The Test tab

"Take the Test"
 AFI
 Very Proud of Ya


Intro/Verse:
e-|-------------------------------------------------------------------|
B-|-------------------------------------------------------------------|
G-|-------------------------------------------------------------------|
D-|-----------------5-5-5-5-3-3-3-3-------------------5-5-5-5-3-3-3-3-|
A-|-5-5-5-5-5-5-5-5-3-3-3-3-1-1-1-1---5-5-5-5-4-5-5-5-3-3-3-3-1-1-1-1-|
E-|-3-3-3-3-3-3-3-3-------------------3-3-3-3-2-3-3-3-----------------|

Chorus:  *last four bars of the song you just play the first half of the riff
e-|-----------------------------------------------------------------|
B-|-----------------------------------------------------------------|
G-|-----------------------------------------------------------------|
D-|---------5-5-5-5-3-3-3-3-----------------5-5-5-5-3-3-3-3-8-8-8-8-|
A-|-5-5-5-5-3-3-3-3-1-1-1-1-3-3-3-3-5-5-5-5-3-3-3-3-1-1-1-1-6-6-6-6-|
E-|-3-3-3-3-----------------1-1-1-1-3-3-3-3-------------------------|

Bridge:palm muted
e-|------------------------------------------------------------------
B-|------------------------------------------------------------------
G-|------------------------------------------------------------------
D-|---------------------------------8-8-8-8-8-8-8-8-5-5-5-5-5-5-5-5--
A-|-5-5-5-5-5-5-5-5-8-8-8-8-8-8-8-8-6-6-6-6-6-6-6-6-3-3-3-3-3-3-3-3--
E-|-3-3-3-3-3-3-3-3-6-6-6-6-6-6-6-6----------------------------------

e-|-------------------------------------------------------------------------|
B-|-------------------------------------------------------------------------|
G-|-------------------------------------------------------------------------|
D-|---------------------------------8-8-8-8-8-8-8-8-10-10-10-10-10-10-10-10-|
A-|-5-5-5-5-5-5-5-5-8-8-8-8-8-8-8-8-6-6-6-6-6-6-6-6--8--8--8--8--8--8--8--8-|
E-|-3-3-3-3-3-3-3-3-6-6-6-6-6-6-6-6-----------------------------------------|

Song Order:
 Verse (3x)
 Chorus (2x)
 Verse (2x)
 Chorus (2x)
 Bridge (1x)
 Chorus (2x)
 *1st half of Chorus (4x)
Tap to rate this tab
# A B C D E F G H I J K L M N O P Q R S T U V W X Y Z