Song name
# A B C D E F G H I J K L M N O P Q R S T U V W X Y Z

Afi - The New Patron Saints And Angels tab

"The New Patron Saints and Angels"
 AFI
 Shut your mouth and open your eyes
						~ = let ring
Intro:
e|--------------------------------------------------------------------------|
B|--------------------------------------------------------------------------|
G|--------------------9-------11-11-11-11-11-7-7-7-7-7-6-6-6-6--------------|
D|(firts bass-7-7-7-7-9-9-9-9-----------------------------------------------|
A|---then)----7-7-7-7-7-9-9-9--9--9--9--9--9-5-5-5-5-5-4-4-4-4--------------|
E|------------5-5-5-5---7-7-7---------------------------------//Pickscrape\\|

Verse:
e|--------------------------------------------------------------------------|
B|-----------------------------------------------------[2x]-----------------|
G|-9-9-9-9-9-9-9-9--7--5-5-5-5-5-5--7---------------------------------------|
D|-9-9-9-9-9-9-9-9--7--5-5-5-5-5-5--7--7-7-7-7-7-7--9--10-10-10-10--9-9-9-9-|
A|-7-7-7-7-7-7-7-7--5--3-3-3-3-3-3--5--7-7-7-7-7-7--9--10-10-10-10--9-9-9-9-|
E|-------------------------------------5-5-5-5-5-5--7--8--8--8--8---7-7-7-7-|

Chorus:
e|--------------------------------------------------------------------------|
B|--------------------------------------------------------------------------|
G|-11-11-11-11-11--7-7-7-7---------11-11-11-11-11-----------9-9-9-9-9-------|
D|-11-11-11-11-11--7-7-7-7--7-7-7--11-11-11-11-11--7-7-7-7--9-9-9-9-9--9-9-9|
A|-9--9--9--9--9---5-5-5-5--7-7-7--9--9--9--9--9---7-7-7-7--7-7-7-7-7--9-9-9|
E|--------------------------5-5-5------------------5-5-5-5-------------7-7-7|

e|-------------------------------------------------------------------|
B|-------------------------------------------------------------------|
G|-11-11-11-11-11-11-11-11--7-7-7-7-7-7-7-7--------------------------|
D|-11-11-11-11-11-11-11-11--7-7-7-7-7-7-7-7--9-9-9-9-9-9-9-9-9-9-9---|
A|-9--9--9--9--9--9--9--9---5-5-5-5-5-5-5-5--9-9-9-9-9-9-9-9-9-9-9---|
E|-------------------------------------------7-7-7-7-7-7-7-7-7-7-7---|

Bridge:
e|-----------------------------------------------------------------|
B|-----------------------------------------------------------------|
G|-9-9-9-9--7--5-5--7--5-5--------------7--5-5--7--5-5-------------|
D|-9-9-9-9--7--5-5--7--5-5-(play 5x)----7--5-5--7--5-5-(play 5x)---|
A|-7-7-7-7--5--3-3--5--3-3--------------5--3-3--5--3-3-------------|
E|-----------------------------------------------------------------|

e|--------------------------------------------------------------------------|
B|--------------------------------------------------------------------------|
G|-9~--9~--9~--9~--11~--------------------------------9---------------------|
D|-9~--9~--9~--9~---9~--(after bass plays)-7-7-7-7-7--9--9-9-9--------------|
A|-7~--7~--7~--7~---9~---------------------7-7-7-7-7--7--9-9-9--------------|
E|-----------------------------------------5-5-5-5-5-----7-7-7--------------|

End:
e|------------------|
B|------------------|
G|-11--11--11--11---|
D|-11--11--11--11---|
A|-9---9---9---9----|
E|------------------|
Tap to rate this tab
# A B C D E F G H I J K L M N O P Q R S T U V W X Y Z