Song name
# A B C D E F G H I J K L M N O P Q R S T U V W X Y Z

Afi - Over Exposure tab

Help us improve GuitareTab! Take a short survey!
"Over Exposure"
 AFI
 A Fire Inside EP
			# = Pickscrape
________________________________________________________________________
             Tabbed by: Ricky Riot(Guitarist of Upheval)
________________________________________________________________________
Intro
|------------------------------------------------------------------------>
|------------------------------------------------------------------------>
|------------------------------------------------------------------------>
|5-6-7-7777-107-1012-13-1315-1515151615-131515151615-13-7-----------5-6--> X1
|5-6-7-7777-107-1012-13-1315-1515151615-131515151615-13-7-----------5-6-->
|3-4-5-5555-8-5-8-10-11-1113-1313131413-111313131413-11-5###########3-4-->

Verse
|--------------------------------------------------------->
|--------------------------------------------------------->
|--------------------------------------------------------->
|5-6-7-7777-107-1012-13-1315-1515151615-131515151615-13---> X2
|5-6-7-7777-107-1012-13-1315-1515151615-131515151615-13--->
|3-4-5-5555-8-5-8-10-11-1113-1313131413-111313131413-11--->

Chorus
|------------------------------------------------------------------->
|------------------------------------------------------------------->
|------------------------------1212121212121212-101010101010-12-13-->
|1414141414141414-121212121212-1212121212121212-101010101010-12-13-->
|1212121212121212-121212121212-1010101010101010-8-8-8-8-8-8--10-11-->
|-----------------101010101010-------------------------------------->

|------------------------------------------------------------------------>
|------------------------------------------------------------------------>
|------------------------------1212121212121212-101010101010------------->
|1414141414141414-121212121212-1212121212121212-101010101010-5-6-7-77-7-->
|1212121212121212-121212121212-1010101010101010-8-8-8-8-8-8--5-6-7-77-7-->
|-----------------101010101010-------------------------------3-4-5-55-5-->
								 PM..
Play Verse again.

Play Chorus again. Hold last note.

Bridge
|--------------------------------------------------------------------------->
|----------------------------------(1x)------------------------------------->
|--------------------------------------------------------------------------->
|5-6----------------------------------------------------------------77777777>
|5-6-77777777-55555555-88888888-77777777-66666666-55555555-88888888-77777777>
|3-4-55555555-55555555-55555555-55555555-55555555-55555555-55555555-55555555>
   PM........ ........ ........ ........ ........ ........ ........
|-------------------------------------------------12-->
|-------------------------------------------------12-->
|-------------------------------------------------12-->
|-777777777-777777510-101010101010-13131313-13-7--12--> X1
|-----------------510-101010101010-13131313-13-7--12-->
|-----------------38--8-8-8-8-8-8--11111111-11-5--12-->
PM.........
|----------------------------------------------->    |------------>
|----------------------------------------------->    |------------>
|----------------------------------------------->    |------------>
|-777777777-777777510-101010101010-13131313-13--> X1 |5-6-7-77-7--> X4
|-----------------510-101010101010-13131313-13-->    |5-6-7-77-7-->
|-----------------38--8-8-8-8-8-8--11111111-11-->    |3-4-5-55-5-->
PM.........						  PM..
Ending *Hold Last Note*
|---------------------------------------->
|---------------------------------------->
|---------------------------------------->
|5-6-77777777777777777777777777777777-7--> X1
|5-6----------------------------------7-->
|3-4----------------------------------5-->
PM   .................Grad Release

This music is copyright(C) 1998: A Fire Inside music. All rights reserved.
Related for Over Exposure tab