Song name
# A B C D E F G H I J K L M N O P Q R S T U V W X Y Z

Afi - Cruise Control tab

AFI - Cruise Control

Verse
e|-----------------------------------------------| 
B|-----------------------------------------------| 
G|-11-11-11-10-10-10-9-5-4-11-11-11-6-6-9-9--14--| 
D|-11-11-11-10-10-10-9-7-4-11-11-11-6-6-9-9--14--| 
A|-9--9--9--8--8--8--7-5-2-9--9--9--4-4-7-7--12--| 
E|-----------------------------------------------| 

Chorus
e|-----------------------------------------------| 
B|-----------------------------------------------| 
G|-11-11-11-10-9-9-9-4----11-11-11-10-9-9-9-4-11-| 
D|-11-11-11-10-9-9-9-4-x2-11-11-11-10-9-9-9-4-11-| 
A|-9--9--9--8--7-7-7-2----9--9--9--8--7-7-7-2-9--| 
E|-----------------------------------------------| 

Bridge
e|-----------------------------------------------| 
B|-----------------------------------------------| 
G|--11-11-7-7-11-11-7-7-11-11-7-7-11-11/-14------| 
D|--11-11-7-7-11-11-7-7-11-11-7-7-11-11/-14------| 
A|--9--9--5-5-9--9--5-5-9--9--5-5-9--9-/-12------| 
E|-----------------------------------------------|
Tap to rate this tab
# A B C D E F G H I J K L M N O P Q R S T U V W X Y Z