Guitaretab - guitar tabs
Song name
# A B C D E F G H I J K L M N O P Q R S T U V W X Y Z
Home / A / Afi / Halloween tab

Afi - Halloween tab

-------------------------------------------------------------------------------
			     Halloween - A.F.I.
-------------------------------------------------------------------------------
Tabbed by: Steven
Email: lp1ckl3@yahoo.com

Intro:
--------------------|
-0---------------0--|
-0----------0----0--|
-3----------3----3--|
-2----------2----2--|
-1----------1----1--|

Verse:
-6---9---2---4---6-|
-6---9---2---4---6-|
-7---10---3---5---7-|
-8---11---4---6---8-|
-8---11---4---6---8-|
-6---9-1-2---4---6-|

--9---2---4---6---7-6-|
--9---2---4---6---7-6-|
-10---3---5---7---8-7-|
-11---4---6---8---9-8-|
-11---4---6---8---9-8-|
--9-1-2---4---6---6-6-| x2 (repeat Verse)
[ Tab from: http://www.guitaretab.com/a/afi/121859.html ]
-----------------6---7-6-------------------|
-----------------6---7-6-------------------|
-----------------7---8-7-------------------|
-3-4-3-4-3-4-3-4-8---9-8---3-4-3-4-3-4-3-4-|
-3-4-3-4-3-4-3-4-8---9-8---3-4-3-4-3-4-3-4-|
-1-2-1-2-1-2-1-2-6---6-6---1-2-1-2-1-2-1-2-|

Chorus:
-6---4---6---4---|
-6---4---6---4---|
-7---5---7---5---|
-8---6---8---6---|
-8---6---8---6---|
-6---4---6---4---|

Verse:
-6---9---2---4---6-|
-6---9---2---4---6-|
-7---10---3---5---7-|
-8---11---4---6---8-|
-8---11---4---6---8-|
-6---9-1-2---4---6-|

--9---2---4---6-|
--9---2---4---6-|
-10---3---5---7-|
-11---4---6---8-|
-11---4---6---8-|
--9-1-2---4---6-|

Chorus:               Outro:
-6---4---6---4---|    -6---4---6------|
-6---4---6---4---|    -6---4---6------|
-7---5---7---5---|    -7---5---7---0--|
-8---6---8---6---|    -8---6---8---3--|
-8---6---8---6---|    -8---6---8---2--|
-6---4---6---4---| x3 -6---4---6---1~-|

yeah that's it.

| /  slide up
| \  slide down
| h  hammer-on
| p  pull-off
| ~  vibrato
| +  harmonic
| x  Mute note
===============================================================================
Related for Halloween tab