Song name
# A B C D E F G H I J K L M N O P Q R S T U V W X Y Z

Afi - Midnight Sun tab

Afi 
Midnight Sun 
  

   
**Listen to recording for exact rhythm** 
 
( )= harmonic 
 
INTRO: 
||-12--14-15--(12)----14-15-15----------------------| 
||-----0--0---(12)-15-15-15-17----------------------| 
||--------------------------------------------------| 
||--------------------------------------------------| 
||--------------------------------------------------| 
||--------------------------------------------------| 
 
VERSE: 
||-------6-8--7--9----------------------------------| 
||-------6-8--7--9----------------------------------| 
||-9-7-9-7-9--8--10-12------------------------------| 
||-9-7-9-8-10-9--11-12-----repeat-------------------| 
||-7-5-7-8-10-9--11-10------------------------------| 
||-7-5-7-6-8--7--9--10------------------------------| 
 
CHORUS: 
||--------------------------------------------------| 
||--------------------------------------------------| 
||-9999-9--9--10-10-99-12-12-11-11------------------| 
||-9999-10-10-10-10-77-12-12-9--9-------------------| 
||-7777-7- 7--8--8--77-10-10-9--9-------------------| 
||-7777-7--7--8--8-----10-10------------------------| 
 
WAH PART:
||----------------8--6-8--7-9-----------------------| 
||----------------8--6-8--7-9-----------------------| 
||--9-7-9-7-9-12--9--7-9--8-10----------------------| 
||--9-7-9-7-9-12--10-8-10-9-11---repeat--12-12------| 
||--7-5-7-5-7-10--10-8-10-9-11-----------12-11------| 
||--7-5-7-5-7-10--8--6-8--7-9------------10-9-------| 
 
ACOUSTIC BREAKDOWN: 
||--------------------------------------------------| 
||--------------------------------------------------| 
||-9999-9--9--10-10-99-12-12-11-11------------------| 
||-9999-10-10-------77-------9--9-------------------| 
||-7777-7- 7--8--8-----10-10------------------------| 
||--------------------------------------------------| 
I'm not sure about the tuning so I put bars. 
Comments to the next mail:
jose_cbx@hotmail.com
Tap to rate this tab
 
# A B C D E F G H I J K L M N O P Q R S T U V W X Y Z