Guitaretab - guitar tabs
Song name
# A B C D E F G H I J K L M N O P Q R S T U V W X Y Z

Afi - Perfect Stranger tab

			Perfect stranger- All for nothing
Legend
>= slide					~= bend note up and down slightly 
^= force bend(no normal bends in this song)
P= pull off
h= hammer on
*= palm mute(if under bar/staff)
*= palm mute no note(if on bar/staff)

Intro
E|->^12-^12-^12-12p10------------|
B|--------------------10h12-12---|
G|-------------------------------|
D|-------------------------------|
A|-------------------------------|
E|-------------------------------|

E|-----------------------------------------------------------------|
B|-----------------------------------------------------------------|
G|-----------------7-7-7-7-7-7-7-7---------7-7-7-7-----------------|
D|-7-7-7-7-7-7-7-7-7-7-7-7-7-7-7-7-5-5-5-5-7-7-7-7-7-7-7-7-7-7-7-7-|
A|-7-7-7-7-7-7-7-7-5-5-5-5-5-5-5-5-5-5-5-5-5-5-5-5-7-7-7-7-7-7-7-7-|
E|-5-5-5-5-5-5-5-5-----------------3-3-3-3---------5-5-5-5-5-5-5-5-| x2

Verse 1
E|-----------------------------------------------------------------|
B|-----------------------------------------------------------------|
G|-----------------------------------------------------------------|
D|-7-7-7-7-7-7-7-7-5-5-5-5-5-5-5-5-2-2-2-2-2-2-2-2-2-2-2-2-2-2-2-2-|
A|-7-7-7-7-7-7-7-7-5-5-5-5-5-5-5-5-2-2-2-2-2-2-2-2-2-2-2-2-2-2-2-2-|
E|-5-5-5-5-5-5-5-5-3-3-3-3-3-3-3-3-0-0-0-0-0-0-0-0-0-0-0-0-0-0-0-0-| x3
   *************************(palm mute)***************************
E|-----------------------------------------------------------------|
B|-----------------------------------------------------------------|
G|-----------------5-5-5-5-5-5-5-5---------------------------------|
D|-7-7-7-7-7-7-7-7-5-5-5-5-5-5-5-5-2-2-2-2-2-2-2-5-5-5-5-5-5-5-5-5-|
A|-7-7-7-7-7-7-7-7-3-3-3-3-3-3-3-3-2-2-2-2-2-2-2-5-5-5-5-5-5-5-5-5-|
E|-5-5-5-5-5-5-5-5-----------------0-0-0-0-0-0-0-3-3-3-3-3-3-3-3-3-|
  *********************(palm mute)*****

Corus 
E|-----------------------------------------------------------------|
B|-----------------------------------------------------------------|
G|-----------------7-7-7-7-*-*-*-*---------7-7-*-*-----------------|
D|-7-7-7-7-*-*-*-*-7-7-7-7-*-*-*-*-5-5-*-*-7-7-*-*-7-7-7-7-7-7-7-7-|
A|-7-7-7-7-*-*-*-*-5-5-5-5-*-*-*-*-5-5-*-*-5-5-*-*-7-7-7-7-7-7-7-7-|
E|-5-5-5-5-*-*-*-*-----------------3-3-*-*---------5-5-5-5-5-5-5-5-|
 
E|-------------------------------------------------5-5-5-5-5-5-5-5-|
B|-----------------------------------------------------------------|
G|-----------------7-7-7-7-*-*-*-*---------7-7-*-*-----------------|
D|-7-7-7-7-*-*-*-*-7-7-7-7-*-*-*-*-5-5-*-*-7-7-*-*-----------------|
A|-7-7-7-7-*-*-*-*-5-5-5-5-*-*-*-*-5-5-*-*-5-5-*-*-----------------|
E|-5-5-5-5-*-*-*-*-----------------3-3-*-*-------------------------| x2

Verse 2
E|-----------------------------------------------------------------|
B|-----------------------------------------------------------------|
G|-----------------------------------------------------------------|
D|-7-7-7-7-7-7-7-7-5-5-5-5-5-5-5-5-2-2-2-2-2-2-2-2-2-2-2-2-2-2-2-2-|
A|-7-7-7-7-7-7-7-7-5-5-5-5-5-5-5-5-2-2-2-2-2-2-2-2-2-2-2-2-2-2-2-2-|
E|-5-5-5-5-5-5-5-5-3-3-3-3-3-3-3-3-0-0-0-0-0-0-0-0-0-0-0-0-0-0-0-0-| x3
   *************************(palm mute)***************************
E|-----------------------------------------------------------------|
B|-----------------------------------------------------------------|
G|-----------------5-5-5-5-5-5-5-5---------------------------------|
D|-7-7-7-7-7-7-7-7-5-5-5-5-5-5-5-5-2-2-2-2-2-2-2-5-5-5-5-5-5-5-5-5-|
A|-7-7-7-7-7-7-7-7-3-3-3-3-3-3-3-3-2-2-2-2-2-2-2-5-5-5-5-5-5-5-5-5-|
E|-5-5-5-5-5-5-5-5-----------------0-0-0-0-0-0-0-3-3-3-3-3-3-3-3-3-|
  *********************(palm mute)*****
[ Tab from: http://www.guitaretab.com/a/afi/156768.html ]
Corus
E|-----------------------------------------------------------------|
B|-----------------------------------------------------------------|
G|-----------------7-7-7-7-*-*-*-*---------7-7-*-*-----------------|
D|-7-7-7-7-*-*-*-*-7-7-7-7-*-*-*-*-5-5-*-*-7-7-*-*-7-7-7-7-7-7-7-7-|
A|-7-7-7-7-*-*-*-*-5-5-5-5-*-*-*-*-5-5-*-*-5-5-*-*-7-7-7-7-7-7-7-7-|
E|-5-5-5-5-*-*-*-*-----------------3-3-*-*---------5-5-5-5-5-5-5-5-|
 
E|-------------------------------------------------5-5-5-5-5-5-5-5-|
B|-----------------------------------------------------------------|
G|-----------------7-7-7-7-*-*-*-*---------7-7-*-*-----------------|
D|-7-7-7-7-*-*-*-*-7-7-7-7-*-*-*-*-5-5-*-*-7-7-*-*-----------------|
A|-7-7-7-7-*-*-*-*-5-5-5-5-*-*-*-*-5-5-*-*-5-5-*-*-----------------|
E|-5-5-5-5-*-*-*-*-----------------3-3-*-*-------------------------| x2
(for each * do a double palm mute on this riff)

Solo Intro
E|-----------------------------------------------------------------|
B|-----------------------------------------------------------------|
G|-----------------7-7-7-7-7-7-7-7-----------------7-7-7-7-7-7-7-7-|
D|-7-7-7-7-7-7-7-7-7-7-7-7-7-7-7-7-7-7-7-7-7-7-7-7-7-7-7-7-7-7-7-7-|
A|-7-7-7-7-7-7-7-7-5-5-5-5-5-5-5-5-7-7-7-7-7-7-7-7-5-5-5-5-5-5-5-5-|
E|-5-5-5-5-5-5-5-5-----------------5-5-5-5-5-5-5-5-----------------| x2

SOLO!
E|--------------8h10->^12-^12-^12-12p10-----------------10h12-12p10-10-12p10-10-12p10-10|
B|----------8h10-----------------------10h12-12-10-10-12--------------------------------|
G|---7h9~~7h9--------------------------------------------------------------------------|
D|->9-----------------------------------------------------------------------------------|
A|--------------------------------------------------------------------------------------|
E|--------------------------------------------------------------------------------------|
(continue right from this bar to the next ex.10 to 12p10-10)
E|-12p10-10-12-12-12-12-12-|
B|-------------------------|
G|-------------------------|
D|-------------------------|
A|-------------------------|
E|-------------------------|

E|12p0-0-10p0-0-9p0-0-10p0-9p0-10p0-12p0-0-10p0-0-9p0-0-10p0-9p0-10p0-12p0-0-10p0-0-9p0-0
B|--------------------------------------------------------------------------------------|
G|--------------------------------------------------------------------------------------|
D|--------------------------------------------------------------------------------------|
A|--------------------------------------------------------------------------------------|
E|--------------------------------------------------------------------------------------|

E|-10p0-9p0-10p0-12~12~12~12~^14~^14~^14~^14~~--12~~|
B|-----------------------------------------------12~~|
G|---------------------------------------------------|
D|---------------------------------------------------|
A|---------------------------------------------------|
E|---------------------------------------------------|

Outro
E|-----------------------------------------------------------------|
B|-----------------------------------------------------------------|
G|-----------------7-7-7-7-7-7-7-7---------7-7-7-7-----------------|
D|-7-7-7-7-7-7-7-7-7-7-7-7-7-7-7-7-5-5-5-5-7-7-7-7-7-7-7-7-7-7-7-7-|
A|-7-7-7-7-7-7-7-7-5-5-5-5-5-5-5-5-5-5-5-5-5-5-5-5-7-7-7-7-7-7-7-7-|
E|-5-5-5-5-5-5-5-5-----------------3-3-3-3---------5-5-5-5-5-5-5-5-|

E|----------------------------------------------------------12p0-0-10p0-09p0-0----------|
B|--------------------------------------------------------------------------------------|
G|-----------------7-7-7-7-7-7-7-7------------7-7-7-7--------------------------------|
D|-7-7-7-7-7-7-7-7-7-7-7-7-7-7-7-7-5-5-5-5-7-7-7-7-7~~------------------2--2~~~~~~|
A|-7-7-7-7-7-7-7-7-5-5-5-5-5-5-5-5-5-5-5-5-5-5-5-5-7~~------------------2--2~~~~~~|
E|-5-5-5-5-5-5-5-5-----------------3-3-3-3------------5~~------------------0--0~~~~~~|

Tabbed by-Ben Badiuk AKA Benji Boi. If you have any comments please tell me at
chips_ahoy1234@hotmail.com. This is my bands song and we dont have a record label
so dont look us up on lime wire or itunes or any music download programs.Also im
not really from afi or anything its just i want to teach some1 how to learn the song
Related for Perfect Stranger tab