Song name
# A B C D E F G H I J K L M N O P Q R S T U V W X Y Z

Afi - Torch Song tab

Torch song Intro
AFI generally play half a step down so if you want to use regular AFI tuning
just play each note a fret up

(Figure The Rythm)
e|-----------------------------------------------------------------|
B|--11-11-11-11-------12-12-12-12-------11-11-11-11-------8-8-8-8--|
G|--10-10-10-10-------11-11-11-11-------10-10-10-10-------7-7-7-7--|
D|-----------------------------------------------------------------|
A|-----------------------------------------------------------------|
E|-----------------------------------------------------------------|

e|-----------11-11-11----------14-14-14----------16-16-16--------------|
B|--11-11-11-11-11-11-12-12-12-12-12-12-14-14-14-14-14-14-15-15-15-15--|
G|--10-10-10-10-10-10-11-11-11-11-11-11-13-13-13-13-13-13-14-14-14-14--|
D|---------------------------------------------------------------------|
A|---------------------------------------------------------------------|
E|---------------------------------------------------------------------|

e|--11--------9---9--------------------------------------------|
B|-----9-12p9---9---9-12p9-12p9-12p9-12p9-12p9-12p9-12p9-12p9--|
G|-------------------------------------------------------------|
D|-------------------------------------------------------------|
A|-------------------------------------------------------------|
E|-------------------------------------------------------------|

e|--11--------9---9----------------------------------------11--|
B|-----9-12p9---9---9-12p9-12p9-12p9-12p9-12p11-9-----9-12-----|
G|-------------------------------------------------11----------|
D|-------------------------------------------------------------|
A|-------------------------------------------------------------|
E|-------------------------------------------------------------|

e|-------------10-11---------------------------------------------|
B|--9--9-9----------------10-11--9--12p9-12p9--11h12p11h12p11p9--|
G|-----------9--------11-----------------------------------------|
D|---------------------------------------------------------------|
A|---------------------------------------------------------------|
E|---------------------------------------------------------------|

e|-----------------------------------------|
B|-------12-11------12--11------12--11--9--|
G|--/11---------11----------8--------------|
D|-----------------------------------------|
A|-----------------------------------------|
E|-----------------------------------------|
Tap to rate this tab
# A B C D E F G H I J K L M N O P Q R S T U V W X Y Z